  0
SECTION
  2
HEADER
  9
$ACADVER
  1
AC1014
  9
$ACADMAINTVER
 70
     9
  9
$DWGCODEPAGE
  3
ANSI_1252
  9
$INSBASE
 10
0.0
 20
0.0
 30
0.0
  9
$EXTMIN
 10
6.838714680912346
 20
3.13986821614656
 30
-0.0000000349181948
  9
$EXTMAX
 10
26.40364844387356
 20
18.19492192039606
 30
0.0000000814935746
  9
$LIMMIN
 10
0.0
 20
0.0
  9
$LIMMAX
 10
31.5
 20
20.8
  9
$ORTHOMODE
 70
     0
  9
$REGENMODE
 70
     1
  9
$FILLMODE
 70
     1
  9
$QTEXTMODE
 70
     0
  9
$MIRRTEXT
 70
     0
  9
$DRAGMODE
 70
     2
  9
$LTSCALE
 40
1.0
  9
$OSMODE
 70
    37
  9
$ATTMODE
 70
     1
  9
$TEXTSIZE
 40
0.125
  9
$TRACEWID
 40
0.05
  9
$TEXTSTYLE
  7
ROMANS
  9
$CLAYER
  8
0
  9
$CELTYPE
  6
BYLAYER
  9
$CECOLOR
 62
   256
  9
$CELTSCALE
 40
1.0
  9
$DELOBJ
 70
     1
  9
$DISPSILH
 70
     0
  9
$DIMSCALE
 40
1.0
  9
$DIMASZ
 40
0.125
  9
$DIMEXO
 40
0.0625
  9
$DIMDLI
 40
0.38
  9
$DIMRND
 40
0.0
  9
$DIMDLE
 40
0.0
  9
$DIMEXE
 40
0.09
  9
$DIMTP
 40
0.0
  9
$DIMTM
 40
0.0
  9
$DIMTXT
 40
0.125
  9
$DIMCEN
 40
0.04
  9
$DIMTSZ
 40
0.0
  9
$DIMTOL
 70
     0
  9
$DIMLIM
 70
     0
  9
$DIMTIH
 70
     1
  9
$DIMTOH
 70
     1
  9
$DIMSE1
 70
     0
  9
$DIMSE2
 70
     0
  9
$DIMTAD
 70
     0
  9
$DIMZIN
 70
     0
  9
$DIMBLK
  1

  9
$DIMASO
 70
     1
  9
$DIMSHO
 70
     1
  9
$DIMPOST
  1

  9
$DIMAPOST
  1

  9
$DIMALT
 70
     0
  9
$DIMALTD
 70
     2
  9
$DIMALTF
 40
25.4
  9
$DIMLFAC
 40
1.0
  9
$DIMTOFL
 70
     0
  9
$DIMTVP
 40
0.0
  9
$DIMTIX
 70
     0
  9
$DIMSOXD
 70
     0
  9
$DIMSAH
 70
     0
  9
$DIMBLK1
  1

  9
$DIMBLK2
  1

  9
$DIMSTYLE
  2
STANDARD
  9
$DIMCLRD
 70
   256
  9
$DIMCLRE
 70
   256
  9
$DIMCLRT
 70
     3
  9
$DIMTFAC
 40
1.0
  9
$DIMGAP
 40
0.09
  9
$DIMJUST
 70
     0
  9
$DIMSD1
 70
     0
  9
$DIMSD2
 70
     0
  9
$DIMTOLJ
 70
     1
  9
$DIMTZIN
 70
     0
  9
$DIMALTZ
 70
     0
  9
$DIMALTTZ
 70
     0
  9
$DIMFIT
 70
     3
  9
$DIMUPT
 70
     1
  9
$DIMUNIT
 70
     2
  9
$DIMDEC
 70
     3
  9
$DIMTDEC
 70
     3
  9
$DIMALTU
 70
     2
  9
$DIMALTTD
 70
     2
  9
$DIMTXSTY
  7
STANDARD
  9
$DIMAUNIT
 70
     0
  9
$LUNITS
 70
     2
  9
$LUPREC
 70
     3
  9
$SKETCHINC
 40
0.05
  9
$FILLETRAD
 40
0.125
  9
$AUNITS
 70
     0
  9
$AUPREC
 70
     0
  9
$MENU
  1
.
  9
$ELEVATION
 40
0.0
  9
$PELEVATION
 40
0.0
  9
$THICKNESS
 40
0.0
  9
$LIMCHECK
 70
     0
  9
$BLIPMODE
 70
     0
  9
$CHAMFERA
 40
0.5
  9
$CHAMFERB
 40
0.5
  9
$CHAMFERC
 40
1.0
  9
$CHAMFERD
 40
0.0
  9
$SKPOLY
 70
     0
  9
$TDCREATE
 40
2452459.680214004
  9
$TDUPDATE
 40
2452509.679449698
  9
$TDINDWG
 40
0.0225930787
  9
$TDUSRTIMER
 40
0.0225930787
  9
$USRTIMER
 70
     1
  9
$ANGBASE
 50
0.0
  9
$ANGDIR
 70
     0
  9
$PDMODE
 70
     0
  9
$PDSIZE
 40
0.0
  9
$PLINEWID
 40
0.0
  9
$COORDS
 70
     0
  9
$SPLFRAME
 70
     0
  9
$SPLINETYPE
 70
     6
  9
$SPLINESEGS
 70
    64
  9
$ATTDIA
 70
     0
  9
$ATTREQ
 70
     1
  9
$HANDLING
 70
 22529
  9
$HANDSEED
  5
D93
  9
$SURFTAB1
 70
    32
  9
$SURFTAB2
 70
    32
  9
$SURFTYPE
 70
     6
  9
$SURFU
 70
     6
  9
$SURFV
 70
     6
  9
$UCSNAME
  2

  9
$UCSORG
 10
0.0
 20
0.0
 30
0.0
  9
$UCSXDIR
 10
1.0
 20
0.0
 30
0.0
  9
$UCSYDIR
 10
0.0
 20
1.0
 30
0.0
  9
$PUCSNAME
  2

  9
$PUCSORG
 10
0.0
 20
0.0
 30
0.0
  9
$PUCSXDIR
 10
1.0
 20
0.0
 30
0.0
  9
$PUCSYDIR
 10
0.0
 20
1.0
 30
0.0
  9
$USERI1
 70
     0
  9
$USERI2
 70
     0
  9
$USERI3
 70
     0
  9
$USERI4
 70
     0
  9
$USERI5
 70
     0
  9
$USERR1
 40
0.0
  9
$USERR2
 40
0.0
  9
$USERR3
 40
0.0
  9
$USERR4
 40
0.0
  9
$USERR5
 40
0.0
  9
$WORLDVIEW
 70
     1
  9
$SHADEDGE
 70
     3
  9
$SHADEDIF
 70
    70
  9
$TILEMODE
 70
     1
  9
$MAXACTVP
 70
    64
  9
$PINSBASE
 10
0.0
 20
0.0
 30
0.0
  9
$PLIMCHECK
 70
     0
  9
$PEXTMIN
 10
1.000000000000000E+20
 20
1.000000000000000E+20
 30
1.000000000000000E+20
  9
$PEXTMAX
 10
-1.000000000000000E+20
 20
-1.000000000000000E+20
 30
-1.000000000000000E+20
  9
$PLIMMIN
 10
0.0
 20
0.0
  9
$PLIMMAX
 10
12.0
 20
9.0
  9
$UNITMODE
 70
     0
  9
$VISRETAIN
 70
     1
  9
$PLINEGEN
 70
     0
  9
$PSLTSCALE
 70
     1
  9
$TREEDEPTH
 70
  3020
  9
$PICKSTYLE
 70
     1
  9
$CMLSTYLE
  2
STANDARD
  9
$CMLJUST
 70
     0
  9
$CMLSCALE
 40
1.0
  9
$PROXYGRAPHICS
 70
     1
  9
$MEASUREMENT
 70
     0
  0
ENDSEC
  0
SECTION
  2
CLASSES
  0
CLASS
  1
ACDBDICTIONARYWDFLT
  2
AcDbDictionaryWithDefault
  3
AutoCAD 2000
 90
        0
280
     0
281
     0
  0
CLASS
  1
ACDBPLACEHOLDER
  2
AcDbPlaceHolder
  3
AutoCAD 2000
 90
        0
280
     0
281
     0
  0
CLASS
  1
LAYOUT
  2
AcDbLayout
  3
AutoCAD 2000
 90
        0
280
     0
281
     0
  0
CLASS
  1
DICTIONARYVAR
  2
AcDbDictionaryVar
  3
AutoCAD 2000
 90
        0
280
     0
281
     0
  0
CLASS
  1
LONG_TRANSACTION
  2
AcDbLongTransaction
  3
AutoCAD 2000
 90
        0
280
     0
281
     0
  0
CLASS
  1
LWPOLYLINE
  2
AcDbPolyline
  3
AutoCAD 2000
 90
        0
280
     0
281
     1
  0
CLASS
  1
HATCH
  2
AcDbHatch
  3
AutoCAD 2000
 90
        0
280
     0
281
     1
  0
CLASS
  1
XRECORD
  2
AcDbXrecord
  3
AutoCAD 2000
 90
        0
280
     0
281
     0
  0
ENDSEC
  0
SECTION
  2
TABLES
  0
TABLE
  2
VPORT
  5
8
330
0
100
AcDbSymbolTable
 70
     2
  0
VPORT
  5
D6C
330
8
100
AcDbSymbolTableRecord
100
AcDbViewportTableRecord
  2
*ACTIVE
 70
     0
 10
0.0
 20
0.0
 11
1.0
 21
1.0
 12
15.75
 22
10.39999999999999
 13
0.0
 23
0.0
 14
0.5
 24
0.5
 15
0.5
 25
0.5
 16
0.0
 26
0.0
 36
1.0
 17
0.0
 27
0.0
 37
0.0
 40
21.11199999999999
 41
1.781954887218045
 42
50.0
 43
0.0
 44
0.0
 50
0.0
 51
0.0
 71
     0
 72
 15000
 73
     1
 74
     2
 75
     0
 76
     0
 77
     0
 78
     0
  0
ENDTAB
  0
TABLE
  2
LTYPE
  5
5
330
0
100
AcDbSymbolTable
 70
     2
  0
LTYPE
  5
14
330
5
100
AcDbSymbolTableRecord
100
AcDbLinetypeTableRecord
  2
BYBLOCK
 70
     0
  3

 72
    65
 73
     0
 40
0.0
  0
LTYPE
  5
15
330
5
100
AcDbSymbolTableRecord
100
AcDbLinetypeTableRecord
  2
BYLAYER
 70
     0
  3

 72
    65
 73
     0
 40
0.0
  0
LTYPE
  5
16
330
5
100
AcDbSymbolTableRecord
100
AcDbLinetypeTableRecord
  2
CONTINUOUS
 70
     0
  3
Solid line
 72
    65
 73
     0
 40
0.0
  0
ENDTAB
  0
TABLE
  2
LAYER
  5
2
330
0
100
AcDbSymbolTable
 70
    10
  0
LAYER
  5
10
330
2
100
AcDbSymbolTableRecord
100
AcDbLayerTableRecord
  2
0
 70
     0
 62
     7
  6
CONTINUOUS
  0
LAYER
  5
62
330
2
100
AcDbSymbolTableRecord
100
AcDbLayerTableRecord
  2
OBJECT1
 70
     0
 62
     7
  6
CONTINUOUS
  0
LAYER
  5
63
330
2
100
AcDbSymbolTableRecord
100
AcDbLayerTableRecord
  2
OBJECT2
 70
     0
 62
     8
  6
CONTINUOUS
  0
ENDTAB
  0
TABLE
  2
STYLE
  5
3
330
0
100
AcDbSymbolTable
 70
     4
  0
STYLE
  5
11
330
3
100
AcDbSymbolTableRecord
100
AcDbTextStyleTableRecord
  2
STANDARD
 70
     0
 40
0.0
 41
1.0
 50
0.0
 71
     0
 42
0.125
  3
romans.shx
  4

  0
STYLE
  5
B3
330
3
100
AcDbSymbolTableRecord
100
AcDbTextStyleTableRecord
  2
ROMANS
 70
     0
 40
0.0
 41
1.0
 50
0.0
 71
     0
 42
0.125
  3
romans.shx
  4

  0
ENDTAB
  0
TABLE
  2
VIEW
  5
6
330
0
100
AcDbSymbolTable
 70
     0
  0
ENDTAB
  0
TABLE
  2
UCS
  5
7
330
0
100
AcDbSymbolTable
 70
     0
  0
ENDTAB
  0
TABLE
  2
APPID
  5
9
330
0
100
AcDbSymbolTable
 70
     1
  0
APPID
  5
12
330
9
100
AcDbSymbolTableRecord
100
AcDbRegAppTableRecord
  2
ACAD
 70
     0
  0
ENDTAB
  0
TABLE
  2
DIMSTYLE
  5
A
330
0
100
AcDbSymbolTable
 70
     4
  0
DIMSTYLE
105
99
330
A
100
AcDbSymbolTableRecord
100
AcDbDimStyleTableRecord
  2
STANDARD
 70
     0
  3

  4

  5

  6

  7

 40
1.0
 41
0.125
 42
0.0625
 43
0.38
 44
0.09
 45
0.0
 46
0.0
 47
0.0
 48
0.0
140
0.125
141
0.04
142
0.0
143
25.4
144
1.0
145
0.0
146
1.0
147
0.09
 71
     0
 72
     0
 73
     1
 74
     1
 75
     0
 76
     0
 77
     0
 78
     0
170
     0
171
     2
172
     0
173
     0
174
     0
175
     0
176
   256
177
   256
178
     3
270
     2
271
     3
272
     3
273
     2
274
     2
340
11
275
     0
280
     0
281
     0
282
     0
283
     1
284
     0
285
     0
286
     0
287
     3
288
     1
  0
ENDTAB
  0
TABLE
  2
BLOCK_RECORD
  5
1
330
0
100
AcDbSymbolTable
 70
     5
  0
BLOCK_RECORD
  5
1F
102
{ACAD_XDICTIONARY
360
D8F
102
}
330
1
100
AcDbSymbolTableRecord
100
AcDbBlockTableRecord
  2
*MODEL_SPACE
  0
BLOCK_RECORD
  5
1B
102
{ACAD_XDICTIONARY
360
D8D
102
}
330
1
100
AcDbSymbolTableRecord
100
AcDbBlockTableRecord
  2
*PAPER_SPACE
  0
BLOCK_RECORD
  5
6B
330
1
100
AcDbSymbolTableRecord
100
AcDbBlockTableRecord
  2
MARKINS
  0
BLOCK_RECORD
  5
277
330
1
100
AcDbSymbolTableRecord
100
AcDbBlockTableRecord
  2
SPECSHEET_FLOWARROW
  0
BLOCK_RECORD
  5
283
330
1
100
AcDbSymbolTableRecord
100
AcDbBlockTableRecord
  2
*X3
  0
ENDTAB
  0
ENDSEC
  0
SECTION
  2
BLOCKS
  0
BLOCK
  5
20
330
1F
100
AcDbEntity
  8
0
100
AcDbBlockBegin
  2
*MODEL_SPACE
 70
     0
 10
0.0
 20
0.0
 30
0.0
  3
*MODEL_SPACE
  1

  0
ENDBLK
  5
21
330
1F
100
AcDbEntity
  8
0
100
AcDbBlockEnd
  0
BLOCK
  5
1C
330
1B
100
AcDbEntity
 67
     1
  8
0
100
AcDbBlockBegin
  2
*PAPER_SPACE
 70
     0
 10
0.0
 20
0.0
 30
0.0
  3
*PAPER_SPACE
  1

  0
ENDBLK
  5
1D
330
1B
100
AcDbEntity
 67
     1
  8
0
100
AcDbBlockEnd
  0
BLOCK
  5
6C
330
6B
100
AcDbEntity
  8
0
100
AcDbBlockBegin
  2
MARKINS
 70
     0
 10
0.0
 20
0.0
 30
0.0
  3
MARKINS
  1

  0
ENDBLK
  5
6D
330
6B
100
AcDbEntity
  8
0
100
AcDbBlockEnd
  0
BLOCK
  5
281
330
277
100
AcDbEntity
  8
0
100
AcDbBlockBegin
  2
SPECSHEET_FLOWARROW
 70
     0
 10
0.0
 20
0.0
 30
0.0
  3
SPECSHEET_FLOWARROW
  1

  0
LINE
  5
278
330
277
100
AcDbEntity
  8
OBJECT1
100
AcDbLine
 10
-0.3883432548078076
 20
-4.226471473879882
 30
0.0
 11
-0.3883432548079213
 21
-1.384666629104103
 31
0.0
  0
LINE
  5
279
330
277
100
AcDbEntity
  8
OBJECT1
100
AcDbLine
 10
0.3883432548076939
 20
-4.226471473879882
 30
0.0
 11
0.3883432548077508
 21
-1.384666629103975
 31
0.0
  0
LINE
  5
27A
330
277
100
AcDbEntity
  8
OBJECT1
100
AcDbLine
 10
-0.3883432548079213
 20
-4.226471473879882
 30
0.0
 11
0.3883432548076939
 21
-4.226471473879882
 31
0.0
  0
LINE
  5
27B
330
277
100
AcDbEntity
  8
OBJECT1
100
AcDbLine
 10
0.0
 20
0.0
 30
0.0
 11
-1.359203679482106
 21
-1.359203679482106
 31
0.0
  0
LINE
  5
27C
330
277
100
AcDbEntity
  8
OBJECT1
100
AcDbLine
 10
-0.3883432548079213
 20
-1.384666629104174
 30
0.0
 11
-1.359203679482106
 21
-2.355527053778388
 31
0.0
  0
LINE
  5
27D
330
277
100
AcDbEntity
  8
OBJECT1
100
AcDbLine
 10
-1.359203679482106
 20
-2.355527053778374
 30
0.0
 11
-1.359203679482106
 21
-1.35920367948205
 31
0.0
  0
LINE
  5
27E
330
277
100
AcDbEntity
  8
OBJECT1
100
AcDbLine
 10
1.359203679482106
 20
-2.355527053778359
 30
0.0
 11
1.359203679482106
 21
-1.359203679482078
 31
0.0
  0
LINE
  5
27F
330
277
100
AcDbEntity
  8
OBJECT1
100
AcDbLine
 10
0.0
 20
0.0
 30
0.0
 11
1.35920367948205
 21
-1.359203679482106
 31
0.0
  0
LINE
  5
280
330
277
100
AcDbEntity
  8
OBJECT1
100
AcDbLine
 10
0.3883432548077508
 20
-1.384666629103989
 30
0.0
 11
1.35920367948205
 21
-2.355527053778317
 31
0.0
  0
ENDBLK
  5
282
330
277
100
AcDbEntity
  8
0
100
AcDbBlockEnd
  0
BLOCK
  5
2FC
330
283
100
AcDbEntity
  8
0
100
AcDbBlockBegin
  2
*X3
 70
     1
 10
0.0
 20
0.0
 30
0.0
  3
*X3
  1

  0
LINE
  5
284
330
283
100
AcDbEntity
  8
0
 62
     0
100
AcDbLine
 10
214.5
 20
100.5
 30
0.0
 11
216.0
 21
100.5
 31
0.0
  0
LINE
  5
285
330
283
100
AcDbEntity
  8
0
 62
     0
100
AcDbLine
 10
217.5
 20
100.5
 30
0.0
 11
219.0
 21
100.5
 31
0.0
  0
LINE
  5
286
330
283
100
AcDbEntity
  8
0
 62
     0
100
AcDbLine
 10
220.5
 20
100.5
 30
0.0
 11
221.8515456131695
 21
100.5
 31
0.0
  0
LINE
  5
287
330
283
100
AcDbEntity
  8
0
 62
     0
100
AcDbLine
 10
213.0
 20
102.0
 30
0.0
 11
214.5
 21
102.0
 31
0.0
  0
LINE
  5
288
330
283
100
AcDbEntity
  8
0
 62
     0
100
AcDbLine
 10
216.0
 20
102.0
 30
0.0
 11
217.5
 21
102.0
 31
0.0
  0
LINE
  5
289
330
283
100
AcDbEntity
  8
0
 62
     0
100
AcDbLine
 10
219.0
 20
102.0
 30
0.0
 11
220.5
 21
102.0
 31
0.0
  0
LINE
  5
28A
330
283
100
AcDbEntity
  8
0
 62
     0
100
AcDbLine
 10
212.07515476864
 20
103.4999999999999
 30
0.0
 11
213.0
 21
103.4999999999999
 31
0.0
  0
LINE
  5
28B
330
283
100
AcDbEntity
  8
0
 62
     0
100
AcDbLine
 10
214.5
 20
103.4999999999999
 30
0.0
 11
216.0
 21
103.4999999999999
 31
0.0
  0
LINE
  5
28C
330
283
100
AcDbEntity
  8
0
 62
     0
100
AcDbLine
 10
217.5
 20
103.4999999999999
 30
0.0
 11
219.0
 21
103.4999999999999
 31
0.0
  0
LINE
  5
28D
330
283
100
AcDbEntity
  8
0
 62
     0
100
AcDbLine
 10
220.5
 20
103.4999999999999
 30
0.0
 11
221.8515456131695
 21
103.4999999999999
 31
0.0
  0
LINE
  5
28E
330
283
100
AcDbEntity
  8
0
 62
     0
100
AcDbLine
 10
213.0
 20
105.0
 30
0.0
 11
214.5
 21
105.0
 31
0.0
  0
LINE
  5
28F
330
283
100
AcDbEntity
  8
0
 62
     0
100
AcDbLine
 10
216.0
 20
105.0
 30
0.0
 11
217.5
 21
105.0
 31
0.0
  0
LINE
  5
290
330
283
100
AcDbEntity
  8
0
 62
     0
100
AcDbLine
 10
219.0
 20
105.0
 30
0.0
 11
220.5
 21
105.0
 31
0.0
  0
LINE
  5
291
330
283
100
AcDbEntity
  8
0
 62
     0
100
AcDbLine
 10
216.0
 20
99.0
 30
0.0
 11
217.5
 21
99.0
 31
0.0
  0
LINE
  5
292
330
283
100
AcDbEntity
  8
0
 62
     0
100
AcDbLine
 10
219.0
 20
99.0
 30
0.0
 11
220.5
 21
99.0
 31
0.0
  0
LINE
  5
293
330
283
100
AcDbEntity
  8
0
 62
     0
100
AcDbLine
 10
217.5
 20
97.5
 30
0.0
 11
219.0
 21
97.5
 31
0.0
  0
LINE
  5
294
330
283
100
AcDbEntity
  8
0
 62
     0
100
AcDbLine
 10
220.5
 20
97.5
 30
0.0
 11
221.8515456131695
 21
97.5
 31
0.0
  0
LINE
  5
295
330
283
100
AcDbEntity
  8
0
 62
     0
100
AcDbLine
 10
214.5
 20
101.0625
 30
0.0
 11
216.0
 21
101.0625
 31
0.0
  0
LINE
  5
296
330
283
100
AcDbEntity
  8
0
 62
     0
100
AcDbLine
 10
217.5
 20
101.0625
 30
0.0
 11
219.0
 21
101.0625
 31
0.0
  0
LINE
  5
297
330
283
100
AcDbEntity
  8
0
 62
     0
100
AcDbLine
 10
220.5
 20
101.0625
 30
0.0
 11
221.8515456131695
 21
101.0625
 31
0.0
  0
LINE
  5
298
330
283
100
AcDbEntity
  8
0
 62
     0
100
AcDbLine
 10
213.0
 20
102.5625
 30
0.0
 11
214.5
 21
102.5625
 31
0.0
  0
LINE
  5
299
330
283
100
AcDbEntity
  8
0
 62
     0
100
AcDbLine
 10
216.0
 20
102.5625
 30
0.0
 11
217.5
 21
102.5625
 31
0.0
  0
LINE
  5
29A
330
283
100
AcDbEntity
  8
0
 62
     0
100
AcDbLine
 10
219.0
 20
102.5625
 30
0.0
 11
220.5
 21
102.5625
 31
0.0
  0
LINE
  5
29B
330
283
100
AcDbEntity
  8
0
 62
     0
100
AcDbLine
 10
211.9381536262423
 20
104.0624999999999
 30
0.0
 11
213.0
 21
104.0624999999999
 31
0.0
  0
LINE
  5
29C
330
283
100
AcDbEntity
  8
0
 62
     0
100
AcDbLine
 10
214.5
 20
104.0624999999999
 30
0.0
 11
216.0
 21
104.0624999999999
 31
0.0
  0
LINE
  5
29D
330
283
100
AcDbEntity
  8
0
 62
     0
100
AcDbLine
 10
217.5
 20
104.0624999999999
 30
0.0
 11
219.0
 21
104.0624999999999
 31
0.0
  0
LINE
  5
29E
330
283
100
AcDbEntity
  8
0
 62
     0
100
AcDbLine
 10
220.5
 20
104.0624999999999
 30
0.0
 11
221.8515456131695
 21
104.0624999999999
 31
0.0
  0
LINE
  5
29F
330
283
100
AcDbEntity
  8
0
 62
     0
100
AcDbLine
 10
213.0
 20
105.5625
 30
0.0
 11
214.5
 21
105.5625
 31
0.0
  0
LINE
  5
2A0
330
283
100
AcDbEntity
  8
0
 62
     0
100
AcDbLine
 10
216.0
 20
105.5625
 30
0.0
 11
217.5
 21
105.5625
 31
0.0
  0
LINE
  5
2A1
330
283
100
AcDbEntity
  8
0
 62
     0
100
AcDbLine
 10
219.0
 20
105.5625
 30
0.0
 11
220.5
 21
105.5625
 31
0.0
  0
LINE
  5
2A2
330
283
100
AcDbEntity
  8
0
 62
     0
100
AcDbLine
 10
214.1719356781079
 20
99.5625
 30
0.0
 11
214.5
 21
99.5625
 31
0.0
  0
LINE
  5
2A3
330
283
100
AcDbEntity
  8
0
 62
     0
100
AcDbLine
 10
216.0
 20
99.5625
 30
0.0
 11
217.5
 21
99.5625
 31
0.0
  0
LINE
  5
2A4
330
283
100
AcDbEntity
  8
0
 62
     0
100
AcDbLine
 10
219.0
 20
99.5625
 30
0.0
 11
220.5
 21
99.5625
 31
0.0
  0
LINE
  5
2A5
330
283
100
AcDbEntity
  8
0
 62
     0
100
AcDbLine
 10
215.7789214046878
 20
98.0625
 30
0.0
 11
216.0
 21
98.0625
 31
0.0
  0
LINE
  5
2A6
330
283
100
AcDbEntity
  8
0
 62
     0
100
AcDbLine
 10
217.5
 20
98.0625
 30
0.0
 11
219.0
 21
98.0625
 31
0.0
  0
LINE
  5
2A7
330
283
100
AcDbEntity
  8
0
 62
     0
100
AcDbLine
 10
220.5
 20
98.0625
 30
0.0
 11
221.8515456131695
 21
98.0625
 31
0.0
  0
LINE
  5
2A8
330
283
100
AcDbEntity
  8
0
 62
     0
100
AcDbLine
 10
219.0
 20
96.5625
 30
0.0
 11
220.5
 21
96.5625
 31
0.0
  0
LINE
  5
2A9
330
283
100
AcDbEntity
  8
0
 62
     0
100
AcDbLine
 10
213.7211324012738
 20
100.1249999999999
 30
0.0
 11
214.5
 21
100.1249999999999
 31
0.0
  0
LINE
  5
2AA
330
283
100
AcDbEntity
  8
0
 62
     0
100
AcDbLine
 10
216.0
 20
100.1249999999999
 30
0.0
 11
217.5
 21
100.1249999999999
 31
0.0
  0
LINE
  5
2AB
330
283
100
AcDbEntity
  8
0
 62
     0
100
AcDbLine
 10
219.0
 20
100.1249999999999
 30
0.0
 11
220.5
 21
100.1249999999999
 31
0.0
  0
LINE
  5
2AC
330
283
100
AcDbEntity
  8
0
 62
     0
100
AcDbLine
 10
212.7952901522504
 20
101.625
 30
0.0
 11
213.0
 21
101.625
 31
0.0
  0
LINE
  5
2AD
330
283
100
AcDbEntity
  8
0
 62
     0
100
AcDbLine
 10
214.5
 20
101.625
 30
0.0
 11
216.0
 21
101.625
 31
0.0
  0
LINE
  5
2AE
330
283
100
AcDbEntity
  8
0
 62
     0
100
AcDbLine
 10
217.5
 20
101.625
 30
0.0
 11
219.0
 21
101.625
 31
0.0
  0
LINE
  5
2AF
330
283
100
AcDbEntity
  8
0
 62
     0
100
AcDbLine
 10
220.5
 20
101.625
 30
0.0
 11
221.8515456131695
 21
101.625
 31
0.0
  0
LINE
  5
2B0
330
283
100
AcDbEntity
  8
0
 62
     0
100
AcDbLine
 10
213.0
 20
103.125
 30
0.0
 11
214.5
 21
103.125
 31
0.0
  0
LINE
  5
2B1
330
283
100
AcDbEntity
  8
0
 62
     0
100
AcDbLine
 10
216.0
 20
103.125
 30
0.0
 11
217.5
 21
103.125
 31
0.0
  0
LINE
  5
2B2
330
283
100
AcDbEntity
  8
0
 62
     0
100
AcDbLine
 10
219.0
 20
103.125
 30
0.0
 11
220.5
 21
103.125
 31
0.0
  0
LINE
  5
2B3
330
283
100
AcDbEntity
  8
0
 62
     0
100
AcDbLine
 10
211.8345574965776
 20
104.625
 30
0.0
 11
213.0
 21
104.625
 31
0.0
  0
LINE
  5
2B4
330
283
100
AcDbEntity
  8
0
 62
     0
100
AcDbLine
 10
214.5
 20
104.625
 30
0.0
 11
216.0
 21
104.625
 31
0.0
  0
LINE
  5
2B5
330
283
100
AcDbEntity
  8
0
 62
     0
100
AcDbLine
 10
217.5
 20
104.625
 30
0.0
 11
219.0
 21
104.625
 31
0.0
  0
LINE
  5
2B6
330
283
100
AcDbEntity
  8
0
 62
     0
100
AcDbLine
 10
220.5
 20
104.625
 30
0.0
 11
221.8515456131695
 21
104.625
 31
0.0
  0
LINE
  5
2B7
330
283
100
AcDbEntity
  8
0
 62
     0
100
AcDbLine
 10
213.0
 20
106.125
 30
0.0
 11
214.5
 21
106.125
 31
0.0
  0
LINE
  5
2B8
330
283
100
AcDbEntity
  8
0
 62
     0
100
AcDbLine
 10
216.0
 20
106.125
 30
0.0
 11
217.5
 21
106.125
 31
0.0
  0
LINE
  5
2B9
330
283
100
AcDbEntity
  8
0
 62
     0
100
AcDbLine
 10
219.0
 20
106.125
 30
0.0
 11
220.5
 21
106.125
 31
0.0
  0
LINE
  5
2BA
330
283
100
AcDbEntity
  8
0
 62
     0
100
AcDbLine
 10
215.0919986594965
 20
98.625
 30
0.0
 11
216.0
 21
98.625
 31
0.0
  0
LINE
  5
2BB
330
283
100
AcDbEntity
  8
0
 62
     0
100
AcDbLine
 10
217.5
 20
98.625
 30
0.0
 11
219.0
 21
98.625
 31
0.0
  0
LINE
  5
2BC
330
283
100
AcDbEntity
  8
0
 62
     0
100
AcDbLine
 10
220.5
 20
98.625
 30
0.0
 11
221.8515456131695
 21
98.625
 31
0.0
  0
LINE
  5
2BD
330
283
100
AcDbEntity
  8
0
 62
     0
100
AcDbLine
 10
217.2931104604387
 20
97.125
 30
0.0
 11
217.5
 21
97.125
 31
0.0
  0
LINE
  5
2BE
330
283
100
AcDbEntity
  8
0
 62
     0
100
AcDbLine
 10
219.0
 20
97.125
 30
0.0
 11
220.5
 21
97.125
 31
0.0
  0
LINE
  5
2BF
330
283
100
AcDbEntity
  8
0
 62
     0
100
AcDbLine
 10
216.1875
 20
97.77228265831974
 30
0.0
 11
216.1875
 21
98.81250000000001
 31
0.0
  0
LINE
  5
2C0
330
283
100
AcDbEntity
  8
0
 62
     0
100
AcDbLine
 10
216.1875
 20
100.3125
 30
0.0
 11
216.1875
 21
101.8124999999999
 31
0.0
  0
LINE
  5
2C1
330
283
100
AcDbEntity
  8
0
 62
     0
100
AcDbLine
 10
216.1875
 20
103.3125
 30
0.0
 11
216.1875
 21
104.8124999999999
 31
0.0
  0
LINE
  5
2C2
330
283
100
AcDbEntity
  8
0
 62
     0
100
AcDbLine
 10
214.6875
 20
99.00746751506915
 30
0.0
 11
214.6875
 21
100.3124999999999
 31
0.0
  0
LINE
  5
2C3
330
283
100
AcDbEntity
  8
0
 62
     0
100
AcDbLine
 10
214.6875
 20
101.8124999999999
 30
0.0
 11
214.6875
 21
103.3124999999999
 31
0.0
  0
LINE
  5
2C4
330
283
100
AcDbEntity
  8
0
 62
     0
100
AcDbLine
 10
214.6875
 20
104.8124999999999
 30
0.0
 11
214.6875
 21
106.1790479924194
 31
0.0
  0
LINE
  5
2C5
330
283
100
AcDbEntity
  8
0
 62
     0
100
AcDbLine
 10
213.1874999999999
 20
100.9169733346819
 30
0.0
 11
213.1874999999999
 21
101.8124999999999
 31
0.0
  0
LINE
  5
2C6
330
283
100
AcDbEntity
  8
0
 62
     0
100
AcDbLine
 10
213.1874999999999
 20
103.3124999999999
 30
0.0
 11
213.1874999999999
 21
104.8124999999999
 31
0.0
  0
LINE
  5
2C7
330
283
100
AcDbEntity
  8
0
 62
     0
100
AcDbLine
 10
217.6874999999999
 20
96.93697894798306
 30
0.0
 11
217.6874999999999
 21
97.31250000000002
 31
0.0
  0
LINE
  5
2C8
330
283
100
AcDbEntity
  8
0
 62
     0
100
AcDbLine
 10
217.6874999999999
 20
98.81250000000001
 30
0.0
 11
217.6874999999999
 21
100.3125
 31
0.0
  0
LINE
  5
2C9
330
283
100
AcDbEntity
  8
0
 62
     0
100
AcDbLine
 10
217.6874999999999
 20
101.8125
 30
0.0
 11
217.6874999999999
 21
103.3125
 31
0.0
  0
LINE
  5
2CA
330
283
100
AcDbEntity
  8
0
 62
     0
100
AcDbLine
 10
217.6874999999999
 20
104.8125
 30
0.0
 11
217.6874999999999
 21
106.1790479924195
 31
0.0
  0
LINE
  5
2CB
330
283
100
AcDbEntity
  8
0
 62
     0
100
AcDbLine
 10
219.1875
 20
97.31250000000001
 30
0.0
 11
219.1875
 21
98.81250000000001
 31
0.0
  0
LINE
  5
2CC
330
283
100
AcDbEntity
  8
0
 62
     0
100
AcDbLine
 10
219.1875
 20
100.3125
 30
0.0
 11
219.1875
 21
101.8124999999999
 31
0.0
  0
LINE
  5
2CD
330
283
100
AcDbEntity
  8
0
 62
     0
100
AcDbLine
 10
219.1875
 20
103.3125
 30
0.0
 11
219.1875
 21
104.8124999999999
 31
0.0
  0
LINE
  5
2CE
330
283
100
AcDbEntity
  8
0
 62
     0
100
AcDbLine
 10
220.6875
 20
96.10928563667606
 30
0.0
 11
220.6875
 21
97.31249999999999
 31
0.0
  0
LINE
  5
2CF
330
283
100
AcDbEntity
  8
0
 62
     0
100
AcDbLine
 10
220.6875
 20
98.81249999999999
 30
0.0
 11
220.6875
 21
100.3124999999999
 31
0.0
  0
LINE
  5
2D0
330
283
100
AcDbEntity
  8
0
 62
     0
100
AcDbLine
 10
220.6875
 20
101.8124999999999
 30
0.0
 11
220.6875
 21
103.3124999999999
 31
0.0
  0
LINE
  5
2D1
330
283
100
AcDbEntity
  8
0
 62
     0
100
AcDbLine
 10
220.6875
 20
104.8124999999999
 30
0.0
 11
220.6875
 21
106.1790479924194
 31
0.0
  0
LINE
  5
2D2
330
283
100
AcDbEntity
  8
0
 62
     0
100
AcDbLine
 10
216.7499999999999
 20
97.41951898410876
 30
0.0
 11
216.7499999999999
 21
98.81249999999999
 31
0.0
  0
LINE
  5
2D3
330
283
100
AcDbEntity
  8
0
 62
     0
100
AcDbLine
 10
216.7499999999999
 20
100.3124999999999
 30
0.0
 11
216.7499999999999
 21
101.8124999999999
 31
0.0
  0
LINE
  5
2D4
330
283
100
AcDbEntity
  8
0
 62
     0
100
AcDbLine
 10
216.7499999999999
 20
103.3124999999999
 30
0.0
 11
216.7499999999999
 21
104.8124999999999
 31
0.0
  0
LINE
  5
2D5
330
283
100
AcDbEntity
  8
0
 62
     0
100
AcDbLine
 10
215.2499999999999
 20
98.81249999999999
 30
0.0
 11
215.2499999999999
 21
100.3124999999999
 31
0.0
  0
LINE
  5
2D6
330
283
100
AcDbEntity
  8
0
 62
     0
100
AcDbLine
 10
215.2499999999999
 20
101.8124999999999
 30
0.0
 11
215.2499999999999
 21
103.3124999999999
 31
0.0
  0
LINE
  5
2D7
330
283
100
AcDbEntity
  8
0
 62
     0
100
AcDbLine
 10
215.2499999999999
 20
104.8124999999999
 30
0.0
 11
215.2499999999999
 21
106.1790479924194
 31
0.0
  0
LINE
  5
2D8
330
283
100
AcDbEntity
  8
0
 62
     0
100
AcDbLine
 10
213.75
 20
100.3125
 30
0.0
 11
213.75
 21
101.8124999999999
 31
0.0
  0
LINE
  5
2D9
330
283
100
AcDbEntity
  8
0
 62
     0
100
AcDbLine
 10
213.75
 20
103.3125
 30
0.0
 11
213.75
 21
104.8124999999999
 31
0.0
  0
LINE
  5
2DA
330
283
100
AcDbEntity
  8
0
 62
     0
100
AcDbLine
 10
212.25
 20
102.9285960347817
 30
0.0
 11
212.25
 21
103.3125
 31
0.0
  0
LINE
  5
2DB
330
283
100
AcDbEntity
  8
0
 62
     0
100
AcDbLine
 10
212.25
 20
104.8124999999999
 30
0.0
 11
212.25
 21
106.1790479924195
 31
0.0
  0
LINE
  5
2DC
330
283
100
AcDbEntity
  8
0
 62
     0
100
AcDbLine
 10
218.25
 20
96.70360682659794
 30
0.0
 11
218.25
 21
97.31250000000001
 31
0.0
  0
LINE
  5
2DD
330
283
100
AcDbEntity
  8
0
 62
     0
100
AcDbLine
 10
218.25
 20
98.81250000000001
 30
0.0
 11
218.25
 21
100.3125
 31
0.0
  0
LINE
  5
2DE
330
283
100
AcDbEntity
  8
0
 62
     0
100
AcDbLine
 10
218.25
 20
101.8124999999999
 30
0.0
 11
218.25
 21
103.3125
 31
0.0
  0
LINE
  5
2DF
330
283
100
AcDbEntity
  8
0
 62
     0
100
AcDbLine
 10
218.25
 20
104.8124999999999
 30
0.0
 11
218.25
 21
106.1790479924195
 31
0.0
  0
LINE
  5
2E0
330
283
100
AcDbEntity
  8
0
 62
     0
100
AcDbLine
 10
219.75
 20
97.31249999999999
 30
0.0
 11
219.75
 21
98.81249999999999
 31
0.0
  0
LINE
  5
2E1
330
283
100
AcDbEntity
  8
0
 62
     0
100
AcDbLine
 10
219.75
 20
100.3124999999999
 30
0.0
 11
219.75
 21
101.8124999999999
 31
0.0
  0
LINE
  5
2E2
330
283
100
AcDbEntity
  8
0
 62
     0
100
AcDbLine
 10
219.75
 20
103.3124999999999
 30
0.0
 11
219.75
 21
104.8124999999999
 31
0.0
  0
LINE
  5
2E3
330
283
100
AcDbEntity
  8
0
 62
     0
100
AcDbLine
 10
221.2499999999999
 20
96.06009256382098
 30
0.0
 11
221.2499999999999
 21
97.31250000000002
 31
0.0
  0
LINE
  5
2E4
330
283
100
AcDbEntity
  8
0
 62
     0
100
AcDbLine
 10
221.2499999999999
 20
98.81250000000003
 30
0.0
 11
221.2499999999999
 21
100.3125
 31
0.0
  0
LINE
  5
2E5
330
283
100
AcDbEntity
  8
0
 62
     0
100
AcDbLine
 10
221.2499999999999
 20
101.8125
 30
0.0
 11
221.2499999999999
 21
103.3125
 31
0.0
  0
LINE
  5
2E6
330
283
100
AcDbEntity
  8
0
 62
     0
100
AcDbLine
 10
221.2499999999999
 20
104.8125
 30
0.0
 11
221.2499999999999
 21
106.1790479924195
 31
0.0
  0
LINE
  5
2E7
330
283
100
AcDbEntity
  8
0
 62
     0
100
AcDbLine
 10
215.8125
 20
98.81250000000001
 30
0.0
 11
215.8125
 21
100.3125
 31
0.0
  0
LINE
  5
2E8
330
283
100
AcDbEntity
  8
0
 62
     0
100
AcDbLine
 10
215.8125
 20
101.8125
 30
0.0
 11
215.8125
 21
103.3125
 31
0.0
  0
LINE
  5
2E9
330
283
100
AcDbEntity
  8
0
 62
     0
100
AcDbLine
 10
215.8125
 20
104.8125
 30
0.0
 11
215.8125
 21
106.1790479924195
 31
0.0
  0
LINE
  5
2EA
330
283
100
AcDbEntity
  8
0
 62
     0
100
AcDbLine
 10
214.3124999999999
 20
100.3125
 30
0.0
 11
214.3124999999999
 21
101.8125
 31
0.0
  0
LINE
  5
2EB
330
283
100
AcDbEntity
  8
0
 62
     0
100
AcDbLine
 10
214.3124999999999
 20
103.3125
 30
0.0
 11
214.3124999999999
 21
104.8125
 31
0.0
  0
LINE
  5
2EC
330
283
100
AcDbEntity
  8
0
 62
     0
100
AcDbLine
 10
212.8124999999999
 20
101.8124999999999
 30
0.0
 11
212.8124999999999
 21
103.3124999999999
 31
0.0
  0
LINE
  5
2ED
330
283
100
AcDbEntity
  8
0
 62
     0
100
AcDbLine
 10
212.8124999999999
 20
104.8124999999999
 30
0.0
 11
212.8124999999999
 21
106.1790479924194
 31
0.0
  0
LINE
  5
2EE
330
283
100
AcDbEntity
  8
0
 62
     0
100
AcDbLine
 10
217.3125
 20
97.31250000000001
 30
0.0
 11
217.3125
 21
98.81250000000001
 31
0.0
  0
LINE
  5
2EF
330
283
100
AcDbEntity
  8
0
 62
     0
100
AcDbLine
 10
217.3125
 20
100.3125
 30
0.0
 11
217.3125
 21
101.8124999999999
 31
0.0
  0
LINE
  5
2F0
330
283
100
AcDbEntity
  8
0
 62
     0
100
AcDbLine
 10
217.3125
 20
103.3125
 30
0.0
 11
217.3125
 21
104.8124999999999
 31
0.0
  0
LINE
  5
2F1
330
283
100
AcDbEntity
  8
0
 62
     0
100
AcDbLine
 10
218.8124999999999
 20
96.50850933876832
 30
0.0
 11
218.8124999999999
 21
97.31250000000001
 31
0.0
  0
LINE
  5
2F2
330
283
100
AcDbEntity
  8
0
 62
     0
100
AcDbLine
 10
218.8124999999999
 20
98.81250000000001
 30
0.0
 11
218.8124999999999
 21
100.3125
 31
0.0
  0
LINE
  5
2F3
330
283
100
AcDbEntity
  8
0
 62
     0
100
AcDbLine
 10
218.8124999999999
 20
101.8124999999999
 30
0.0
 11
218.8124999999999
 21
103.3125
 31
0.0
  0
LINE
  5
2F4
330
283
100
AcDbEntity
  8
0
 62
     0
100
AcDbLine
 10
218.8124999999999
 20
104.8124999999999
 30
0.0
 11
218.8124999999999
 21
106.1790479924195
 31
0.0
  0
LINE
  5
2F5
330
283
100
AcDbEntity
  8
0
 62
     0
100
AcDbLine
 10
220.3125
 20
97.31250000000002
 30
0.0
 11
220.3125
 21
98.81250000000001
 31
0.0
  0
LINE
  5
2F6
330
283
100
AcDbEntity
  8
0
 62
     0
100
AcDbLine
 10
220.3125
 20
100.3125
 30
0.0
 11
220.3125
 21
101.8125
 31
0.0
  0
LINE
  5
2F7
330
283
100
AcDbEntity
  8
0
 62
     0
100
AcDbLine
 10
220.3125
 20
103.3125
 30
0.0
 11
220.3125
 21
104.8125
 31
0.0
  0
LINE
  5
2F8
330
283
100
AcDbEntity
  8
0
 62
     0
100
AcDbLine
 10
221.8125
 20
96.04230337046224
 30
0.0
 11
221.8125
 21
97.31249999999999
 31
0.0
  0
LINE
  5
2F9
330
283
100
AcDbEntity
  8
0
 62
     0
100
AcDbLine
 10
221.8125
 20
98.81249999999999
 30
0.0
 11
221.8125
 21
100.3124999999999
 31
0.0
  0
LINE
  5
2FA
330
283
100
AcDbEntity
  8
0
 62
     0
100
AcDbLine
 10
221.8125
 20
101.8124999999999
 30
0.0
 11
221.8125
 21
103.3124999999999
 31
0.0
  0
LINE
  5
2FB
330
283
100
AcDbEntity
  8
0
 62
     0
100
AcDbLine
 10
221.8125
 20
104.8124999999999
 30
0.0
 11
221.8125
 21
106.1790479924194
 31
0.0
  0
ENDBLK
  5
2FD
330
283
100
AcDbEntity
  8
0
100
AcDbBlockEnd
  0
ENDSEC
  0
SECTION
  2
ENTITIES
  0
INSERT
  5
6E
330
1F
100
AcDbEntity
  8
0
100
AcDbBlockReference
  2
MARKINS
 10
35.11392154394951
 20
12.89028416584571
 30
0.0
 41
0.25
 42
0.25
 43
0.25
  0
TEXT
  5
638
330
1F
100
AcDbEntity
  8
OBJECT1
100
AcDbText
 10
11.96383251399376
 20
3.141114652962727
 30
0.0
 40
0.375
  1
TYPICAL INSTALLATION
  7
ROMANS
 72
     1
 11
15.00847537113662
 21
3.328614652962727
 31
0.0
100
AcDbText
 73
     2
  0
TEXT
  5
639
330
1F
100
AcDbEntity
  8
OBJECT1
100
AcDbText
 10
7.864825314867656
 20
4.066827388191313
 30
0.0
 40
0.75
  1
WILKINS MODEL 975XLFDC
  7
ROMANS
 72
     1
 11
15.38268245772479
 21
4.441827388191313
 31
0.0
100
AcDbText
 73
     2
  0
LINE
  5
63A
330
1F
100
AcDbEntity
  8
OBJECT1
100
AcDbLine
 10
10.38769489223636
 20
15.04654507110527
 30
0.0
 11
12.96893728384017
 21
15.04654507110527
 31
0.0
  0
LINE
  5
63B
330
1F
100
AcDbEntity
  8
OBJECT1
100
AcDbLine
 10
10.38769489223636
 20
14.65658737000458
 30
0.0
 11
12.96893728384017
 21
14.65658737000458
 31
0.0
  0
LINE
  5
63C
330
1F
100
AcDbEntity
  8
OBJECT1
100
AcDbLine
 10
10.38769489223636
 20
14.91694638977955
 30
0.0
 11
12.96893728384017
 21
14.91694638977955
 31
0.0
  0
LINE
  5
63D
330
1F
100
AcDbEntity
  8
OBJECT1
100
AcDbLine
 10
10.38769489223636
 20
14.78193091394396
 30
0.0
 11
12.96893728384017
 21
14.78193091394396
 31
0.0
  0
ARC
  5
63E
330
1F
100
AcDbEntity
  8
OBJECT1
100
AcDbCircle
 10
8.434285584479908
 20
14.84733381406565
 30
0.0
 40
3.656022578365167
100
AcDbArc
 50
4.366933421997804
 51
16.22734410810243
  0
LINE
  5
63F
330
1F
100
AcDbEntity
  8
OBJECT1
100
AcDbLine
 10
12.06825012942593
 20
15.86900701787769
 30
0.0
 11
11.94465379282047
 21
15.86900701787769
 31
0.0
  0
ARC
  5
640
330
1F
100
AcDbEntity
  8
OBJECT1
100
AcDbCircle
 10
11.52192195028985
 20
15.07879197664979
 30
0.0
 40
1.051518603845941
100
AcDbArc
 50
2.557702140350282
 51
68.04055113480813
  0
LINE
  5
641
330
1F
100
AcDbEntity
  8
OBJECT1
100
AcDbLine
 10
10.78423915928081
 20
11.4274059513709
 30
0.0
 11
12.57239301679573
 21
11.4274059513709
 31
0.0
  0
LINE
  5
642
330
1F
100
AcDbEntity
  8
OBJECT1
100
AcDbLine
 10
10.66475046621968
 20
11.1645530000369
 30
0.0
 11
12.69188170985685
 21
11.1645530000369
 31
0.0
  0
ARC
  5
643
330
1F
100
AcDbEntity
  8
OBJECT1
100
AcDbCircle
 10
11.67647631220762
 20
13.30954787679704
 30
0.0
 40
0.6626497584055411
100
AcDbArc
 50
270.159075777867
 51
89.84092422213299
  0
ARC
  5
644
330
1F
100
AcDbEntity
  8
OBJECT1
100
AcDbCircle
 10
11.67831608803828
 20
13.30954787679704
 30
0.0
 40
0.8134623007288103
100
AcDbArc
 50
270.0
 51
90.0
  0
ARC
  5
645
330
1F
100
AcDbEntity
  8
OBJECT1
100
AcDbCircle
 10
12.14086078566464
 20
6.069753986064512
 30
0.0
 40
0.4692716739653241
100
AcDbArc
 50
189.713048950166
 51
350.286951049834
  0
ARC
  5
646
330
1F
100
AcDbEntity
  8
OBJECT2
100
AcDbCircle
 10
12.14086078566464
 20
5.911408709103966
 30
0.0
 40
0.4692716739653241
100
AcDbArc
 50
9.713048950166013
 51
170.286951049834
  0
LINE
  5
647
330
1F
100
AcDbEntity
  8
OBJECT1
100
AcDbLine
 10
12.60340548329105
 20
9.305601416812407
 30
0.0
 11
10.75322669278551
 21
9.305601416812407
 31
0.0
  0
LINE
  5
648
330
1F
100
AcDbEntity
  8
OBJECT1
100
AcDbLine
 10
12.69188170985685
 20
9.305601416812407
 30
0.0
 11
10.66475046621968
 21
9.305601416812407
 31
0.0
  0
LINE
  5
649
330
1F
100
AcDbEntity
  8
OBJECT1
100
AcDbLine
 10
10.27437327989449
 20
9.800265741725183
 30
0.0
 11
13.08225889618205
 21
9.800265741725183
 31
0.0
  0
LINE
  5
64A
330
1F
100
AcDbEntity
  8
OBJECT1
100
AcDbLine
 10
10.27437327989449
 20
9.668820705123522
 30
0.0
 11
13.08225889618205
 21
9.668820705123522
 31
0.0
  0
LINE
  5
64B
330
1F
100
AcDbEntity
  8
OBJECT1
100
AcDbLine
 10
10.27437327989449
 20
9.532681171656093
 30
0.0
 11
13.08225889618205
 21
9.532681171656093
 31
0.0
  0
LINE
  5
64C
330
1F
100
AcDbEntity
  8
OBJECT1
100
AcDbLine
 10
10.27437327989449
 20
9.927016334530151
 30
0.0
 11
13.08225889618205
 21
9.927016334530151
 31
0.0
  0
ARC
  5
64D
330
1F
100
AcDbEntity
  8
OBJECT1
100
AcDbCircle
 10
11.67831608803828
 20
13.30954787679704
 30
0.0
 40
0.8134623007288103
100
AcDbArc
 50
90.0
 51
270.0
  0
ARC
  5
64E
330
1F
100
AcDbEntity
  8
OBJECT1
100
AcDbCircle
 10
11.68015586386891
 20
13.30954787679704
 30
0.0
 40
0.6626497584055411
100
AcDbArc
 50
90.159075777867
 51
269.8409242221329
  0
LINE
  5
64F
330
1F
100
AcDbEntity
  8
OBJECT1
100
AcDbLine
 10
10.54762326237749
 20
13.88560703457417
 30
0.0
 11
10.54762326237749
 21
12.73348871901996
 31
0.0
  0
ARC
  5
650
330
1F
100
AcDbEntity
  8
OBJECT1
100
AcDbCircle
 10
10.43593101803725
 20
12.88530082274766
 30
0.0
 40
0.9287169621115074
100
AcDbArc
 50
91.29190290108626
 51
106.4193733527751
  0
ARC
  5
651
330
1F
100
AcDbEntity
  8
OBJECT1
100
AcDbCircle
 10
10.20897359489239
 20
13.32359077766554
 30
0.0
 40
0.8042342585345721
100
AcDbArc
 50
24.32715434606937
 51
44.33253566078835
  0
LINE
  5
652
330
1F
100
AcDbEntity
  8
OBJECT1
100
AcDbLine
 10
10.75322669278551
 20
9.305601416812407
 30
0.0
 11
10.75322669278551
 21
5.990581347584225
 31
0.0
  0
INSERT
  5
653
330
1F
100
AcDbEntity
  8
OBJECT2
100
AcDbBlockReference
  2
*X3
 10
-44.70965971050685
 20
-17.34390564220317
 30
0.0
 41
0.25
 42
0.25
 43
0.25
1001
ACAD
1000
HATCH
1002
{
1070
    16
1000
EARTH
1040
6.0
1040
0.0
1002
}
  0
ARC
  5
654
330
1F
100
AcDbEntity
  8
OBJECT1
100
AcDbCircle
 10
11.21577139041187
 20
6.069753986064512
 30
0.0
 40
0.4692716739653241
100
AcDbArc
 50
189.713048950166
 51
350.286951049834
  0
ARC
  5
655
330
1F
100
AcDbEntity
  8
OBJECT2
100
AcDbCircle
 10
7.668997343613028
 20
8.945410737862886
 30
0.0
 40
0.4942450024685793
100
AcDbArc
 50
35.43254208631648
 51
83.08263043591937
  0
ARC
  5
656
330
1F
100
AcDbEntity
  8
OBJECT2
100
AcDbCircle
 10
7.849101338668248
 20
9.12101000209418
 30
0.0
 40
0.3373342428875908
100
AcDbArc
 50
22.57333003010367
 51
110.9433271923111
  0
ARC
  5
657
330
1F
100
AcDbEntity
  8
OBJECT2
100
AcDbCircle
 10
7.888915338199666
 20
9.050028962727054
 30
0.0
 40
0.2578893299413595
100
AcDbArc
 50
44.86257011074105
 51
127.3232719025912
  0
ARC
  5
658
330
1F
100
AcDbEntity
  8
OBJECT2
100
AcDbCircle
 10
7.737865207044563
 20
8.605888317021168
 30
0.0
 40
0.6492430002695575
100
AcDbArc
 50
63.58441388956619
 51
90.46871244709247
  0
LINE
  5
659
330
1F
100
AcDbEntity
  8
OBJECT1
100
AcDbLine
 10
10.78423915928081
 20
11.4274059513709
 30
0.0
 11
10.78423915928081
 21
12.73348871901996
 31
0.0
  0
LINE
  5
65A
330
1F
100
AcDbEntity
  8
OBJECT1
100
AcDbLine
 10
10.66475046621968
 20
11.1645530000369
 30
0.0
 11
10.78423915928081
 21
11.4274059513709
 31
0.0
  0
ARC
  5
65B
330
1F
100
AcDbEntity
  8
OBJECT1
100
AcDbCircle
 10
11.10419915845608
 20
10.93252655740391
 30
0.0
 40
0.0562701
100
AcDbArc
 50
0.0
 51
90.0
  0
ARC
  5
65C
330
1F
100
AcDbEntity
  8
OBJECT1
100
AcDbCircle
 10
10.94782475005391
 20
10.93252655740391
 30
0.0
 40
0.0562701
100
AcDbArc
 50
90.0
 51
180.0
  0
LINE
  5
65D
330
1F
100
AcDbEntity
  8
OBJECT1
100
AcDbLine
 10
10.94782475005391
 20
10.98879665740392
 30
0.0
 11
11.10419915845608
 21
10.98879665740392
 31
0.0
  0
ARC
  5
65E
330
1F
100
AcDbEntity
  8
OBJECT1
100
AcDbCircle
 10
11.79414543699579
 20
10.93252655740391
 30
0.0
 40
0.0562701
100
AcDbArc
 50
0.0
 51
90.0
  0
ARC
  5
65F
330
1F
100
AcDbEntity
  8
OBJECT1
100
AcDbCircle
 10
11.56248673908075
 20
10.93252655740391
 30
0.0
 40
0.0562701
100
AcDbArc
 50
90.0
 51
180.0
  0
LINE
  5
660
330
1F
100
AcDbEntity
  8
OBJECT1
100
AcDbLine
 10
11.56248673908075
 20
10.98879665740392
 30
0.0
 11
11.79414543699579
 21
10.98879665740392
 31
0.0
  0
ARC
  5
661
330
1F
100
AcDbEntity
  8
OBJECT1
100
AcDbCircle
 10
11.67831608803828
 20
13.30954787679704
 30
0.0
 40
0.3138729387598628
100
AcDbArc
 50
90.0
 51
270.0
  0
LINE
  5
662
330
1F
100
AcDbEntity
  8
OBJECT1
100
AcDbLine
 10
9.904023451202021
 20
13.4873155136191
 30
0.0
 11
9.904023451202021
 21
13.13178023997497
 31
0.0
  0
LINE
  5
663
330
1F
100
AcDbEntity
  8
OBJECT1
100
AcDbLine
 10
10.11286778377069
 20
13.69518029210419
 30
0.0
 11
10.11286778377069
 21
12.92391546148988
 31
0.0
  0
LINE
  5
664
330
1F
100
AcDbEntity
  8
OBJECT1
100
AcDbLine
 10
10.41499212019442
 20
13.81378171014964
 30
0.0
 11
10.41499212019442
 21
12.80531404344449
 31
0.0
  0
LINE
  5
665
330
1F
100
AcDbEntity
  8
OBJECT1
100
AcDbLine
 10
10.46587621051631
 20
13.81378171014964
 30
0.0
 11
10.46587621051631
 21
12.80531404344449
 31
0.0
  0
LINE
  5
666
330
1F
100
AcDbEntity
  8
OBJECT1
100
AcDbLine
 10
10.46587621051631
 20
12.95376479676454
 30
0.0
 11
10.41499212019442
 21
12.95376479676454
 31
0.0
  0
ARC
  5
667
330
1F
100
AcDbEntity
  8
OBJECT1
100
AcDbCircle
 10
10.43593101803725
 20
13.73379493084647
 30
0.0
 40
0.9287169621115074
100
AcDbArc
 50
253.5806266472248
 51
268.7080970989137
  0
LINE
  5
668
330
1F
100
AcDbEntity
  8
OBJECT1
100
AcDbLine
 10
10.11286778377069
 20
13.13178023997497
 30
0.0
 11
9.904023451202021
 21
13.13178023997497
 31
0.0
  0
ARC
  5
669
330
1F
100
AcDbEntity
  8
OBJECT1
100
AcDbCircle
 10
10.1972729337707
 20
12.92391546148988
 30
0.0
 40
0.08440515
100
AcDbArc
 50
180.0
 51
253.5806266472248
  0
ARC
  5
66A
330
1F
100
AcDbEntity
  8
OBJECT1
100
AcDbCircle
 10
10.20897359489239
 20
13.29550497592853
 30
0.0
 40
0.8042342585345721
100
AcDbArc
 50
315.6674643392116
 51
335.6728456539306
  0
LINE
  5
66B
330
1F
100
AcDbEntity
  8
OBJECT1
100
AcDbLine
 10
10.78423915928081
 20
12.73348871901996
 30
0.0
 11
10.54762326237749
 21
12.73348871901996
 31
0.0
  0
LINE
  5
66C
330
1F
100
AcDbEntity
  8
OBJECT1
100
AcDbLine
 10
10.54762326237749
 20
12.80531404344449
 30
0.0
 11
10.46587621051631
 21
12.80531404344449
 31
0.0
  0
LINE
  5
66D
330
1F
100
AcDbEntity
  8
OBJECT1
100
AcDbLine
 10
10.46587621051631
 20
13.66533095682953
 30
0.0
 11
10.41499212019442
 21
13.66533095682953
 31
0.0
  0
ARC
  5
66E
330
1F
100
AcDbEntity
  8
OBJECT1
100
AcDbCircle
 10
10.1972729337707
 20
13.69518029210419
 30
0.0
 40
0.08440515
100
AcDbArc
 50
106.4193733527751
 51
180.0
  0
LINE
  5
66F
330
1F
100
AcDbEntity
  8
OBJECT1
100
AcDbLine
 10
10.11286778377069
 20
13.4873155136191
 30
0.0
 11
9.904023451202021
 21
13.4873155136191
 31
0.0
  0
LINE
  5
670
330
1F
100
AcDbEntity
  8
OBJECT1
100
AcDbLine
 10
10.11286778377069
 20
13.36520151750014
 30
0.0
 11
9.904023451202021
 21
13.36520151750014
 31
0.0
  0
LINE
  5
671
330
1F
100
AcDbEntity
  8
OBJECT1
100
AcDbLine
 10
10.54762326237749
 20
13.81378171014964
 30
0.0
 11
10.46587621051631
 21
13.81378171014964
 31
0.0
  0
LWPOLYLINE
  5
672
330
1F
100
AcDbEntity
  8
OBJECT1
100
AcDbPolyline
 90
        4
 70
     0
 43
0.0
 10
11.67831608803828
 20
13.48964684130751
 10
11.84960038181395
 20
13.36520151750014
 10
11.78417560333065
 20
13.16384475383878
 10
11.67831608803828
 20
13.16384475383878
  0
LWPOLYLINE
  5
673
330
1F
100
AcDbEntity
  8
OBJECT1
100
AcDbPolyline
 90
        4
 70
     0
 43
0.0
 10
11.67831608803828
 20
13.48964684130751
 10
11.50703179426261
 20
13.36520151750014
 10
11.57245657274589
 20
13.16384475383878
 10
11.67831608803828
 20
13.16384475383878
  0
ARC
  5
674
330
1F
100
AcDbEntity
  8
OBJECT1
100
AcDbCircle
 10
11.67831608803828
 20
13.30954787679704
 30
0.0
 40
0.3138729387598628
100
AcDbArc
 50
270.0
 51
90.0
  0
ARC
  5
675
330
1F
100
AcDbEntity
  8
OBJECT2
100
AcDbCircle
 10
9.609573622450255
 20
9.240569231604837
 30
0.0
 40
0.6205534294226436
100
AcDbArc
 50
355.0796951004375
 51
66.01100297814436
  0
ARC
  5
676
330
1F
100
AcDbEntity
  8
OBJECT2
100
AcDbCircle
 10
9.35881765828671
 20
9.042442087626511
 30
0.0
 40
0.5414504386844201
100
AcDbArc
 50
18.39168483557118
 51
81.84305771154495
  0
ARC
  5
677
330
1F
100
AcDbEntity
  8
OBJECT2
100
AcDbCircle
 10
9.449311099907362
 20
8.803492366421977
 30
0.0
 40
0.589156993813932
100
AcDbArc
 50
44.07042786522107
 51
106.8996241576279
  0
ARC
  5
678
330
1F
100
AcDbEntity
  8
OBJECT2
100
AcDbCircle
 10
9.130946468334656
 20
8.450305377539422
 30
0.0
 40
0.9286261655871916
100
AcDbArc
 50
52.53146195269952
 51
80.88566672241434
  0
ARC
  5
679
330
1F
100
AcDbEntity
  8
OBJECT2
100
AcDbCircle
 10
9.522144928941628
 20
7.997907508039332
 30
0.0
 40
1.278447527545438
100
AcDbArc
 50
97.97225468129475
 51
111.5065032218003
  0
ARC
  5
67A
330
1F
100
AcDbEntity
  8
OBJECT2
100
AcDbCircle
 10
9.477104750661027
 20
8.913097100183904
 30
0.0
 40
0.6666084158439394
100
AcDbArc
 50
35.01711252289605
 51
93.5661262630189
  0
ARC
  5
67B
330
1F
100
AcDbEntity
  8
OBJECT2
100
AcDbCircle
 10
9.025976225374876
 20
9.263008113470334
 30
0.0
 40
0.9976008471305872
100
AcDbArc
 50
1.872836715458563
 51
33.08091279288066
  0
LINE
  5
67C
330
1F
100
AcDbEntity
  8
OBJECT1
100
AcDbLine
 10
10.27437327989449
 20
9.668820705123522
 30
0.0
 11
10.27437327989449
 21
9.532681171656093
 31
0.0
  0
LINE
  5
67D
330
1F
100
AcDbEntity
  8
OBJECT1
100
AcDbLine
 10
10.66475046621968
 20
9.305601416812407
 30
0.0
 11
10.66475046621968
 21
9.532681171656093
 31
0.0
  0
LINE
  5
67E
330
1F
100
AcDbEntity
  8
OBJECT1
100
AcDbLine
 10
10.27437327989449
 20
9.927016334530151
 30
0.0
 11
10.27437327989449
 21
9.800265741725183
 31
0.0
  0
ARC
  5
67F
330
1F
100
AcDbEntity
  8
OBJECT1
100
AcDbCircle
 10
10.39123794169341
 20
9.734543223424367
 30
0.0
 40
0.1340775842159346
100
AcDbArc
 50
150.6474064067205
 51
209.3525935932794
  0
LINE
  5
680
330
1F
100
AcDbEntity
  8
OBJECT1
100
AcDbLine
 10
10.94782475005391
 20
10.09310902405408
 30
0.0
 11
11.10419915845608
 21
10.09310902405408
 31
0.0
  0
ARC
  5
681
330
1F
100
AcDbEntity
  8
OBJECT1
100
AcDbCircle
 10
10.94782475005391
 20
10.14937912405406
 30
0.0
 40
0.0562701
100
AcDbArc
 50
180.0
 51
270.0
  0
ARC
  5
682
330
1F
100
AcDbEntity
  8
OBJECT1
100
AcDbCircle
 10
11.10419915845608
 20
10.14937912405406
 30
0.0
 40
0.0562701
100
AcDbArc
 50
270.0
 51
0.0
  0
LINE
  5
683
330
1F
100
AcDbEntity
  8
OBJECT1
100
AcDbLine
 10
11.56248673908075
 20
10.09310902405408
 30
0.0
 11
11.79414543699579
 21
10.09310902405408
 31
0.0
  0
ARC
  5
684
330
1F
100
AcDbEntity
  8
OBJECT1
100
AcDbCircle
 10
11.56248673908075
 20
10.14937912405406
 30
0.0
 40
0.0562701
100
AcDbArc
 50
180.0
 51
270.0
  0
ARC
  5
685
330
1F
100
AcDbEntity
  8
OBJECT1
100
AcDbCircle
 10
11.79414543699579
 20
10.14937912405406
 30
0.0
 40
0.0562701
100
AcDbArc
 50
270.0
 51
0.0
  0
ARC
  5
686
330
1F
100
AcDbEntity
  8
OBJECT2
100
AcDbCircle
 10
7.898404135977756
 20
9.280950667708026
 30
0.0
 40
0.5685430849320693
100
AcDbArc
 50
355.2258859347401
 51
50.1138242026866
  0
ARC
  5
687
330
1F
100
AcDbEntity
  8
OBJECT2
100
AcDbCircle
 10
6.988235898284386
 20
9.397062161939658
 30
0.0
 40
1.31434057474648
100
AcDbArc
 50
353.1041144800011
 51
14.0977451379708
  0
ARC
  5
688
330
1F
100
AcDbEntity
  8
OBJECT2
100
AcDbCircle
 10
7.938164948523507
 20
9.23355118770749
 30
0.0
 40
0.3549493743772776
100
AcDbArc
 50
0.9207694437791962
 51
86.60447613713651
  0
ARC
  5
689
330
1F
100
AcDbEntity
  8
OBJECT2
100
AcDbCircle
 10
7.838653847857216
 20
9.287117560141581
 30
0.0
 40
0.3240138731093084
100
AcDbArc
 50
353.5111851103267
 51
68.16079043166819
  0
ARC
  5
68A
330
1F
100
AcDbEntity
  8
OBJECT2
100
AcDbCircle
 10
9.852006918253977
 20
9.164173404002923
 30
0.0
 40
1.057763338458013
100
AcDbArc
 50
147.1841746253652
 51
178.7448004574573
  0
ARC
  5
68B
330
1F
100
AcDbEntity
  8
OBJECT2
100
AcDbCircle
 10
9.205575827290061
 20
9.201142487794328
 30
0.0
 40
0.5885684599475032
100
AcDbArc
 50
114.3349078291729
 51
169.5993313657404
  0
ARC
  5
68C
330
1F
100
AcDbEntity
  8
OBJECT2
100
AcDbCircle
 10
6.590078832020907
 20
9.664102846988242
 30
0.0
 40
1.923678637289783
100
AcDbArc
 50
347.069161593839
 51
4.846234667865818
  0
ARC
  5
68D
330
1F
100
AcDbEntity
  8
OBJECT2
100
AcDbCircle
 10
7.898067038870266
 20
9.412719266100822
 30
0.0
 40
0.7361837901385922
100
AcDbArc
 50
351.7747553097827
 51
34.20969277332162
  0
ARC
  5
68E
330
1F
100
AcDbEntity
  8
OBJECT2
100
AcDbCircle
 10
10.1354201139604
 20
8.420654196187257
 30
0.0
 40
1.442632520985176
100
AcDbArc
 50
133.3987203877776
 51
147.896376332228
  0
ARC
  5
68F
330
1F
100
AcDbEntity
  8
OBJECT2
100
AcDbCircle
 10
9.123634205739648
 20
9.136444665125566
 30
0.0
 40
0.3330492717890609
100
AcDbArc
 50
86.45478000105423
 51
171.2090746183716
  0
ARC
  5
690
330
1F
100
AcDbEntity
  8
OBJECT2
100
AcDbCircle
 10
9.192794879002036
 20
8.867210987601822
 30
0.0
 40
0.4249192756944369
100
AcDbArc
 50
69.03463460073599
 51
131.1144055157042
  0
LINE
  5
691
330
1F
100
AcDbEntity
  8
OBJECT1
100
AcDbLine
 10
11.50621663908074
 20
10.93252655740391
 30
0.0
 11
11.50621663908074
 21
10.14937912405406
 31
0.0
  0
LINE
  5
692
330
1F
100
AcDbEntity
  8
OBJECT1
100
AcDbLine
 10
11.85041553699579
 20
10.93252655740391
 30
0.0
 11
11.85041553699579
 21
10.14937912405406
 31
0.0
  0
LINE
  5
693
330
1F
100
AcDbEntity
  8
OBJECT1
100
AcDbLine
 10
11.16046925845608
 20
10.93252655740391
 30
0.0
 11
11.16046925845608
 21
10.14937912405406
 31
0.0
  0
LINE
  5
694
330
1F
100
AcDbEntity
  8
OBJECT1
100
AcDbLine
 10
10.8915546500539
 20
10.93252655740391
 30
0.0
 11
10.8915546500539
 21
10.14937912405406
 31
0.0
  0
LINE
  5
695
330
1F
100
AcDbEntity
  8
OBJECT1
100
AcDbLine
 10
10.66475046621968
 20
9.927016334530151
 30
0.0
 11
10.66475046621968
 21
11.1645530000369
 31
0.0
  0
LINE
  5
696
330
1F
100
AcDbEntity
  8
OBJECT1
100
AcDbLine
 10
11.47309878659893
 20
16.25853804302536
 30
0.0
 11
11.88353338947763
 21
16.25853804302536
 31
0.0
  0
LINE
  5
697
330
1F
100
AcDbEntity
  8
OBJECT1
100
AcDbLine
 10
11.44149454470351
 20
16.23898866895584
 30
0.0
 11
11.91513763137305
 21
16.23898866895584
 31
0.0
  0
LINE
  5
698
330
1F
100
AcDbEntity
  8
OBJECT1
100
AcDbLine
 10
11.47309878659893
 20
16.23898866895584
 30
0.0
 11
11.47309878659893
 21
16.25853804302536
 31
0.0
  0
LINE
  5
699
330
1F
100
AcDbEntity
  8
OBJECT1
100
AcDbLine
 10
11.83988944087809
 20
16.25853804302536
 30
0.0
 11
11.83988944087809
 21
16.44889710480353
 31
0.0
  0
LINE
  5
69A
330
1F
100
AcDbEntity
  8
OBJECT1
100
AcDbLine
 10
11.51674273519847
 20
16.25853804302536
 30
0.0
 11
11.51674273519847
 21
16.44889710480353
 31
0.0
  0
LINE
  5
69B
330
1F
100
AcDbEntity
  8
OBJECT1
100
AcDbLine
 10
11.88353338947763
 20
16.23898866895584
 30
0.0
 11
11.88353338947763
 21
16.25853804302536
 31
0.0
  0
LINE
  5
69C
330
1F
100
AcDbEntity
  8
OBJECT1
100
AcDbLine
 10
11.5146818351875
 20
16.44889710480353
 30
0.0
 11
11.83988944087809
 21
16.44889710480353
 31
0.0
  0
LINE
  5
69D
330
1F
100
AcDbEntity
  8
OBJECT1
100
AcDbLine
 10
10.78423915928081
 20
15.04654507110527
 30
0.0
 11
10.78423915928081
 21
15.12571651892906
 31
0.0
  0
ARC
  5
69E
330
1F
100
AcDbEntity
  8
OBJECT1
100
AcDbCircle
 10
10.45962033767128
 20
14.84943865186173
 30
0.0
 40
0.0986436231075607
100
AcDbArc
 50
136.8147140107971
 51
223.1852859892028
  0
LINE
  5
69F
330
1F
100
AcDbEntity
  8
OBJECT1
100
AcDbLine
 10
10.38769489223636
 20
14.78193091394396
 30
0.0
 11
10.38769489223636
 21
14.65658737000458
 31
0.0
  0
LINE
  5
6A0
330
1F
100
AcDbEntity
  8
OBJECT1
100
AcDbLine
 10
10.38769489223636
 20
15.04654507110527
 30
0.0
 11
10.38769489223636
 21
14.91694638977955
 31
0.0
  0
ARC
  5
6A1
330
1F
100
AcDbEntity
  8
OBJECT1
100
AcDbCircle
 10
14.92234659159666
 20
14.84733381406565
 30
0.0
 40
3.656022578365167
100
AcDbArc
 50
163.7726558918975
 51
175.6330665780021
  0
ARC
  5
6A2
330
1F
100
AcDbEntity
  8
OBJECT1
100
AcDbCircle
 10
12.10147722152939
 20
15.04961411094316
 30
0.0
 40
1.154351982432478
100
AcDbArc
 50
134.7789682624077
 51
176.2199471086027
  0
LINE
  5
6A3
330
1F
100
AcDbEntity
  8
OBJECT1
100
AcDbLine
 10
11.27693795014795
 20
15.12571651892901
 30
0.0
 11
10.94963655423009
 21
15.12571651892901
 31
0.0
  0
LINE
  5
6A4
330
1F
100
AcDbEntity
  8
OBJECT1
100
AcDbLine
 10
11.28838204665064
 20
15.86900701787769
 30
0.0
 11
11.41197838325606
 21
15.86900701787769
 31
0.0
  0
ARC
  5
6A5
330
1F
100
AcDbEntity
  8
OBJECT1
100
AcDbCircle
 10
17.22427073030238
 20
15.09551858485301
 30
0.0
 40
5.700220144167078
100
AcDbArc
 50
172.2012195410553
 51
179.6964639571644
  0
ARC
  5
6A6
330
1F
100
AcDbEntity
  8
OBJECT1
100
AcDbCircle
 10
6.132361445774193
 20
15.09551858485301
 30
0.0
 40
5.700220144167078
100
AcDbArc
 50
0.3035360428355251
 51
7.79878045894465
  0
LINE
  5
6A7
330
1F
100
AcDbEntity
  8
OBJECT1
100
AcDbLine
 10
11.83250159990598
 20
15.12571651892901
 30
0.0
 11
11.52413057617056
 21
15.12571651892901
 31
0.0
  0
LINE
  5
6A8
330
1F
100
AcDbEntity
  8
OBJECT1
100
AcDbLine
 10
11.57677346727115
 20
15.86900701787769
 30
0.0
 11
11.77985870880542
 21
15.86900701787769
 31
0.0
  0
LINE
  5
6A9
330
1F
100
AcDbEntity
  8
OBJECT1
100
AcDbLine
 10
11.44149454470351
 20
16.05402159186067
 30
0.0
 11
11.91513763137305
 21
16.05402159186067
 31
0.0
  0
ARC
  5
6AA
330
1F
100
AcDbEntity
  8
OBJECT1
100
AcDbCircle
 10
11.83471022578669
 20
15.07879197664979
 30
0.0
 40
1.051518603845941
100
AcDbArc
 50
111.9594488651918
 51
177.4422978596497
  0
LINE
  5
6AB
330
1F
100
AcDbEntity
  8
OBJECT1
100
AcDbLine
 10
11.44149454470351
 20
16.05402159186067
 30
0.0
 11
11.44149454470351
 21
16.23898866895584
 31
0.0
  0
LINE
  5
6AC
330
1F
100
AcDbEntity
  8
OBJECT1
100
AcDbLine
 10
11.91513763137305
 20
16.05402159186067
 30
0.0
 11
11.91513763137305
 21
16.23898866895584
 31
0.0
  0
LINE
  5
6AD
330
1F
100
AcDbEntity
  8
OBJECT1
100
AcDbLine
 10
10.78423915928081
 20
13.88560703457417
 30
0.0
 11
10.54762326237749
 21
13.88560703457417
 31
0.0
  0
LINE
  5
6AE
330
1F
100
AcDbEntity
  8
OBJECT1
100
AcDbLine
 10
10.78423915928081
 20
13.88560703457417
 30
0.0
 11
10.78423915928081
 21
14.65658737000458
 31
0.0
  0
LINE
  5
6AF
330
1F
100
AcDbEntity
  8
OBJECT2
100
AcDbLine
 10
16.73656278825907
 20
13.81844724023127
 30
0.0
 11
16.73656353122495
 21
13.80480762355389
 31
0.0
  0
LINE
  5
6B0
330
1F
100
AcDbEntity
  8
OBJECT1
100
AcDbLine
 10
16.74364833075469
 20
13.8112755136847
 30
0.0
 11
16.76284112264315
 21
13.83046880088383
 31
0.0
  0
LINE
  5
6B1
330
1F
100
AcDbEntity
  8
OBJECT1
100
AcDbLine
 10
15.4533355161478
 20
13.67067948418954
 30
0.0
 11
15.96141922426136
 21
14.17876319230308
 31
0.0
  0
LINE
  5
6B2
330
1F
100
AcDbEntity
  8
OBJECT2
100
AcDbLine
 10
16.55082030861419
 20
13.61907579308771
 30
0.0
 11
15.96141897660606
 21
14.20850882497657
 31
0.0
  0
LINE
  5
6B3
330
1F
100
AcDbEntity
  8
OBJECT2
100
AcDbLine
 10
16.1393681148545
 20
14.41555572958483
 30
0.0
 11
16.74364833075469
 21
13.8112755136847
 31
0.0
  0
ARC
  5
6B4
330
1F
100
AcDbEntity
  8
OBJECT1
100
AcDbCircle
 10
18.09099799921301
 20
13.76691081523998
 30
0.0
 40
0.0409769762376214
100
AcDbArc
 50
359.9964435210062
 51
89.99644352100627
  0
ARC
  5
6B5
330
1F
100
AcDbEntity
  8
OBJECT1
100
AcDbCircle
 10
14.70647161537488
 20
13.76691081523992
 30
0.0
 40
0.0409769762376214
100
AcDbArc
 50
90.0035564789937
 51
180.0035564789937
  0
ARC
  5
6B6
330
1F
100
AcDbEntity
  8
OBJECT1
100
AcDbCircle
 10
17.82932900334216
 20
13.84229866815874
 30
0.0
 40
0.0343904686896341
100
AcDbArc
 50
204.7918042881929
 51
269.9976318190975
  0
LINE
  5
6B7
330
1F
100
AcDbEntity
  8
OBJECT1
100
AcDbLine
 10
17.77063360599012
 20
13.81518777482611
 30
0.0
 11
17.69981838430481
 21
13.96850354809859
 31
0.0
  0
LINE
  5
6B8
330
1F
100
AcDbEntity
  8
OBJECT2
  6
CONTINUOUS
100
AcDbLine
 10
17.89195254649183
 20
13.87412444538509
 30
0.0
 11
17.89197071114594
 21
13.81320247538136
 31
0.0
  0
LINE
  5
6B9
330
1F
100
AcDbEntity
  8
OBJECT2
100
AcDbLine
 10
17.93188266211046
 20
13.84625628186992
 30
0.0
 11
17.93192011650083
 21
13.81375538814384
 31
0.0
  0
LINE
  5
6BA
330
1F
100
AcDbEntity
  8
OBJECT2
100
AcDbLine
 10
18.02394217655975
 20
13.84625628186992
 30
0.0
 11
18.02394217655978
 21
13.81374587104463
 31
0.0
  0
LINE
  5
6BB
330
1F
100
AcDbEntity
  8
OBJECT2
  6
CONTINUOUS
100
AcDbLine
 10
18.06389158191464
 20
13.81320247538136
 30
0.0
 11
18.0638921444557
 21
13.87410571818989
 31
0.0
  0
LINE
  5
6BC
330
1F
100
AcDbEntity
  8
OBJECT1
100
AcDbLine
 10
19.37022294563064
 20
13.84872597418714
 30
0.0
 11
19.37022294563064
 21
13.69877302250009
 31
0.0
  0
LINE
  5
6BD
330
1F
100
AcDbEntity
  8
OBJECT1
100
AcDbLine
 10
19.49836869823707
 20
13.84872597418714
 30
0.0
 11
19.49836869823707
 21
13.69877302250009
 31
0.0
  0
ELLIPSE
  5
6BE
330
1F
100
AcDbEntity
  8
OBJECT1
100
AcDbEllipse
 10
19.43429582193386
 20
13.84872597418714
 30
0.0
 11
-0.0640728763032073
 21
0.0
 31
0.0
210
0.0
220
0.0
230
1.0
 40
0.5676074033185691
 41
0.0
 42
6.283185307179586
  0
LINE
  5
6BF
330
1F
100
AcDbEntity
  8
OBJECT1
100
AcDbLine
 10
15.02683600859779
 20
13.81518777482611
 30
0.0
 11
15.09765123028307
 21
13.96850354809859
 31
0.0
  0
LINE
  5
6C0
330
1F
100
AcDbEntity
  8
OBJECT2
100
AcDbLine
 10
14.77352743802813
 20
13.84625628186992
 30
0.0
 11
14.77352743802813
 21
13.81374587104463
 31
0.0
  0
LINE
  5
6C1
330
1F
100
AcDbEntity
  8
OBJECT2
100
AcDbLine
 10
14.73357803267325
 20
13.81320247538136
 30
0.0
 11
14.73357747013221
 21
13.87410571818989
 31
0.0
  0
LINE
  5
6C2
330
1F
100
AcDbEntity
  8
OBJECT2
100
AcDbLine
 10
14.86558695247742
 20
13.84625628186992
 30
0.0
 11
14.86554949808709
 21
13.81375538814384
 31
0.0
  0
LINE
  5
6C3
330
1F
100
AcDbEntity
  8
OBJECT2
100
AcDbLine
 10
14.90551706809609
 20
13.87412444538509
 30
0.0
 11
14.90549890344195
 21
13.81320247538136
 31
0.0
  0
ARC
  5
6C4
330
1F
100
AcDbEntity
  8
OBJECT1
100
AcDbCircle
 10
14.96814061124573
 20
13.84229866815869
 30
0.0
 40
0.0343904686896341
100
AcDbArc
 50
270.0023681809024
 51
335.208195711807
  0
LINE
  5
6C5
330
1F
100
AcDbEntity
  8
OBJECT1
100
AcDbLine
 10
13.83451037653898
 20
13.87303753733729
 30
0.0
 11
13.83451037653898
 21
13.69877302250009
 31
0.0
  0
LINE
  5
6C6
330
1F
100
AcDbEntity
  8
OBJECT1
100
AcDbLine
 10
13.96265612914538
 20
13.87303753733729
 30
0.0
 11
13.96265612914538
 21
13.69877302250009
 31
0.0
  0
LINE
  5
6C7
330
1F
100
AcDbEntity
  8
OBJECT1
100
AcDbLine
 10
12.80900891369904
 20
13.88560703457417
 30
0.0
 11
12.80900891369904
 21
12.73348871901996
 31
0.0
  0
ARC
  5
6C8
330
1F
100
AcDbEntity
  8
OBJECT1
100
AcDbCircle
 10
13.14765858118414
 20
13.32359077766554
 30
0.0
 40
0.8042342585345721
100
AcDbArc
 50
135.6674643392116
 51
155.6728456539306
  0
ARC
  5
6C9
330
1F
100
AcDbEntity
  8
OBJECT1
100
AcDbCircle
 10
12.92070115803932
 20
12.88530082274766
 30
0.0
 40
0.9287169621115074
100
AcDbArc
 50
73.58062664722488
 51
88.70809709891375
  0
ARC
  5
6CA
330
1F
100
AcDbEntity
  8
OBJECT1
100
AcDbCircle
 10
19.91661266846355
 20
11.87980338406234
 30
0.0
 40
1.822809288363044
100
AcDbArc
 50
31.33745023422323
 51
88.61787877223544
  0
INSERT
  5
6CB
330
1F
100
AcDbEntity
  8
OBJECT1
100
AcDbBlockReference
  2
SPECSHEET_FLOWARROW
 10
22.71896961599821
 20
8.535493314939053
 30
0.0
 41
0.25
 42
0.25
 43
0.25
 50
270.0
  0
ARC
  5
6CC
330
1F
100
AcDbEntity
  8
OBJECT1
100
AcDbCircle
 10
19.91661266846355
 20
11.87980338406234
 30
0.0
 40
1.037841393363045
100
AcDbArc
 50
31.33745023422323
 51
88.61787877223544
  0
LINE
  5
6CD
330
1F
100
AcDbEntity
  8
OBJECT1
100
AcDbLine
 10
12.60340548329105
 20
9.305601416812407
 30
0.0
 11
12.60340548329105
 21
5.977606285214278
 31
0.0
  0
INSERT
  5
6CE
330
1F
100
AcDbEntity
  8
OBJECT2
100
AcDbBlockReference
  2
*X3
 10
68.06629188658343
 20
-17.34390564220317
 30
0.0
 41
-0.25
 42
0.25
 43
0.25
1001
ACAD
1000
HATCH
1002
{
1070
    16
1000
EARTH
1040
6.0
1040
0.0
1002
}
  0
ARC
  5
6CF
330
1F
100
AcDbEntity
  8
OBJECT1
100
AcDbCircle
 10
16.22100533793783
 20
11.94020156582846
 30
0.0
 40
0.0218821391808199
100
AcDbArc
 50
0.0111240000026271
 51
110.6098919999989
  0
TEXT
  5
6D0
330
1F
100
AcDbEntity
  8
OBJECT1
100
AcDbText
 10
15.61121664822428
 20
8.352371184799601
 30
0.0
 40
0.375
  1
DIRECTION OF FLOW
  7
ROMANS
100
AcDbText
  0
LINE
  5
6D1
330
1F
100
AcDbEntity
  8
OBJECT2
100
AcDbLine
 10
15.52139862738565
 20
13.30949698615754
 30
0.0
 11
15.52139862738565
 21
13.30949698615754
 31
0.0
  0
LINE
  5
6D2
330
1F
100
AcDbEntity
  8
OBJECT1
100
AcDbLine
 10
15.75081437951698
 20
13.02493978669676
 30
0.0
 11
15.75081512248291
 21
13.02318713000627
 31
0.0
  0
ARC
  5
6D3
330
1F
100
AcDbEntity
  8
OBJECT1
100
AcDbCircle
 10
15.72886493627612
 20
13.02488158769679
 30
0.0
 40
0.0219479838327933
100
AcDbArc
 50
0.1522829999956214
 51
89.84215900000046
  0
LINE
  5
6D4
330
1F
100
AcDbEntity
  8
OBJECT2
100
AcDbLine
 10
15.72892511651861
 20
13.0468295450058
 30
0.0
 11
15.77580403945029
 21
13.04684019418451
 31
0.0
  0
LINE
  5
6D5
330
1F
100
AcDbEntity
  8
OBJECT2
100
AcDbLine
 10
15.52139837973027
 20
13.42857635008115
 30
0.0
 11
15.52139937035167
 21
13.19043892059133
 31
0.0
  0
ARC
  5
6D6
330
1F
100
AcDbEntity
  8
OBJECT2
100
AcDbCircle
 10
15.77589740550536
 20
13.26553643350141
 30
0.0
 40
0.2186960067794411
100
AcDbArc
 50
269.9755550000029
 51
307.6321560000022
  0
LINE
  5
6D7
330
1F
100
AcDbEntity
  8
OBJECT2
100
AcDbLine
 10
15.88215416764816
 20
12.64724387966921
 30
0.0
 11
15.88215317702685
 21
12.95684423261215
 31
0.0
  0
LINE
  5
6D8
330
1F
100
AcDbEntity
  8
OBJECT2
100
AcDbLine
 10
15.83311569033745
 20
12.40408226672886
 30
0.0
 11
15.88215391999287
 21
12.40409316356286
 31
0.0
  0
LINE
  5
6D9
330
1F
100
AcDbEntity
  8
OBJECT1
100
AcDbLine
 10
15.53192248415024
 20
12.74867385662682
 30
0.0
 11
15.53192223649486
 21
12.97939376166644
 31
0.0
  0
LINE
  5
6DA
330
1F
100
AcDbEntity
  8
OBJECT2
100
AcDbLine
 10
15.56484170725499
 20
12.87917929398921
 30
0.0
 11
15.55293543015326
 21
12.86164975522112
 31
0.0
  0
LINE
  5
6DB
330
1F
100
AcDbEntity
  8
OBJECT2
100
AcDbLine
 10
15.56484195491037
 20
12.71299588844911
 30
0.0
 11
15.55293543015326
 21
12.69192908876405
 31
0.0
  0
LINE
  5
6DC
330
1F
100
AcDbEntity
  8
OBJECT2
100
AcDbLine
 10
15.56484220256573
 20
12.82597253000952
 30
0.0
 11
15.55293518249797
 21
12.78002330514411
 31
0.0
  0
LINE
  5
6DD
330
1F
100
AcDbEntity
  8
OBJECT2
100
AcDbLine
 10
15.56484195491037
 20
12.71299588844911
 30
0.0
 11
15.55293543015326
 21
12.758923814957
 31
0.0
  0
LINE
  5
6DE
330
1F
100
AcDbEntity
  8
OBJECT2
100
AcDbLine
 10
15.55293543015326
 20
12.86164975522112
 30
0.0
 11
15.55293443953201
 21
12.67730751874816
 31
0.0
  0
LINE
  5
6DF
330
1F
100
AcDbEntity
  8
OBJECT2
100
AcDbLine
 10
15.56484220256573
 20
12.82597253000952
 30
0.0
 11
15.55293518249797
 21
12.84701753602647
 31
0.0
  0
LINE
  5
6E0
330
1F
100
AcDbEntity
  8
OBJECT2
100
AcDbLine
 10
15.62298842917721
 20
12.8791896957301
 30
0.0
 11
15.56484170725499
 21
12.87917929398921
 31
0.0
  0
LINE
  5
6E1
330
1F
100
AcDbEntity
  8
OBJECT2
100
AcDbLine
 10
15.62298622297899
 20
12.82598342684352
 30
0.0
 11
15.56484220256573
 21
12.82597253000952
 31
0.0
  0
LINE
  5
6E2
330
1F
100
AcDbEntity
  8
OBJECT2
100
AcDbLine
 10
15.62298647063426
 20
12.71297508540234
 30
0.0
 11
15.56484195491037
 21
12.71299588844911
 31
0.0
  0
ARC
  5
6E3
330
1F
100
AcDbEntity
  8
OBJECT1
100
AcDbCircle
 10
15.70680181089576
 20
12.74860798031201
 30
0.0
 40
0.1748791927912268
100
AcDbArc
 50
179.9784240000009
 51
189.9882199999989
  0
LINE
  5
6E4
330
1F
100
AcDbEntity
  8
OBJECT2
100
AcDbLine
 10
15.56481764696727
 20
12.41155365610225
 30
0.0
 11
15.55291136986551
 21
12.39402411733411
 31
0.0
  0
ARC
  5
6E5
330
1F
100
AcDbEntity
  8
OBJECT1
100
AcDbCircle
 10
15.5450415293476
 20
12.4693501093607
 30
0.0
 40
0.0218964989187503
100
AcDbArc
 50
270.015762000003
 51
0.0386200000043571
  0
LINE
  5
6E6
330
1F
100
AcDbEntity
  8
OBJECT1
100
AcDbLine
 10
15.56693747903972
 20
12.51939703912918
 30
0.0
 11
15.56693797435031
 21
12.4693647210245
 31
0.0
  0
ARC
  5
6E7
330
1F
100
AcDbEntity
  8
OBJECT1
100
AcDbCircle
 10
15.39146130297607
 20
12.5194099172057
 30
0.0
 40
0.1754763477466239
100
AcDbArc
 50
359.9957579999965
 51
9.971405000004162
  0
LINE
  5
6E8
330
1F
100
AcDbEntity
  8
OBJECT2
100
AcDbLine
 10
15.56693747903972
 20
12.46386935688443
 30
0.0
 11
15.56693444163983
 21
12.41155403477111
 31
0.0
  0
LINE
  5
6E9
330
1F
100
AcDbEntity
  8
OBJECT2
100
AcDbLine
 10
15.6229643688894
 20
12.41156405784309
 30
0.0
 11
15.56481764696727
 21
12.41155365610225
 31
0.0
  0
LINE
  5
6EA
330
1F
100
AcDbEntity
  8
OBJECT2
100
AcDbLine
 10
15.62298647063426
 20
12.65976782611196
 30
0.0
 11
15.56484195491037
 21
12.65978862915872
 31
0.0
  0
LINE
  5
6EB
330
1F
100
AcDbEntity
  8
OBJECT1
100
AcDbLine
 10
15.53450973926467
 20
12.71867165304306
 30
0.0
 11
15.56428657650835
 21
12.5497947482568
 31
0.0
  0
LINE
  5
6EC
330
1F
100
AcDbEntity
  8
OBJECT2
100
AcDbLine
 10
15.56484195491037
 20
12.65978862915872
 30
0.0
 11
15.55293443953201
 21
12.67730751874816
 31
0.0
  0
LINE
  5
6ED
330
1F
100
AcDbEntity
  8
OBJECT1
100
AcDbLine
 10
15.72805509503575
 20
13.0013050659883
 30
0.0
 11
15.72805509503575
 21
13.0013050659883
 31
0.0
  0
LINE
  5
6EE
330
1F
100
AcDbEntity
  8
OBJECT1
100
AcDbLine
 10
15.72805509503575
 20
13.0013050659883
 30
0.0
 11
15.55381273776998
 21
13.00129367384355
 31
0.0
  0
ARC
  5
6EF
330
1F
100
AcDbEntity
  8
OBJECT1
100
AcDbCircle
 10
15.55377979961252
 20
12.97943586307056
 30
0.0
 40
0.0218579727925956
100
AcDbArc
 50
89.91394399999961
 51
180.1101989999994
  0
ARC
  5
6F0
330
1F
100
AcDbEntity
  8
OBJECT1
100
AcDbCircle
 10
15.72891966810152
 20
13.02319233076795
 30
0.0
 40
0.0218954482062188
100
AcDbArc
 50
270.0142210000022
 51
359.9864040000009
  0
ARC
  5
6F1
330
1F
100
AcDbEntity
  8
OBJECT2
100
AcDbCircle
 10
16.23229941109175
 20
12.95686974111001
 30
0.0
 40
0.3501467989815945
100
AcDbArc
 50
134.992348000004
 51
180.0041809999958
  0
LINE
  5
6F2
330
1F
100
AcDbEntity
  8
OBJECT2
100
AcDbLine
 10
15.83311569033745
 20
12.19407650020045
 30
0.0
 11
15.88213187866946
 21
12.1940876446898
 31
0.0
  0
LINE
  5
6F3
330
1F
100
AcDbEntity
  8
OBJECT2
100
AcDbLine
 10
15.56481789462256
 20
12.24537025056216
 30
0.0
 11
15.55291136986551
 21
12.2912981770701
 31
0.0
  0
LINE
  5
6F4
330
1F
100
AcDbEntity
  8
OBJECT2
100
AcDbLine
 10
15.56692170386875
 20
12.19216223856725
 30
0.0
 11
15.56691667599293
 21
12.10556351565261
 31
0.0
  0
LINE
  5
6F5
330
1F
100
AcDbEntity
  8
OBJECT2
100
AcDbLine
 10
15.56481789462256
 20
12.19216299127182
 30
0.0
 11
15.55291037924428
 21
12.20968188086121
 31
0.0
  0
LINE
  5
6F6
330
1F
100
AcDbEntity
  8
OBJECT2
100
AcDbLine
 10
15.56481789462256
 20
12.24537025056216
 30
0.0
 11
15.55291136986551
 21
12.22430345087704
 31
0.0
  0
ARC
  5
6F7
330
1F
100
AcDbEntity
  8
OBJECT1
100
AcDbCircle
 10
15.54505836990924
 20
12.10559447256744
 30
0.0
 40
0.0218586732676166
100
AcDbArc
 50
359.9188999999963
 51
90.02631400000248
  0
LINE
  5
6F8
330
1F
100
AcDbEntity
  8
OBJECT2
100
AcDbLine
 10
15.62296241034653
 20
12.24534944751533
 30
0.0
 11
15.56481789462256
 21
12.24537025056216
 31
0.0
  0
LINE
  5
6F9
330
1F
100
AcDbEntity
  8
OBJECT2
100
AcDbLine
 10
15.62296241034653
 20
12.19214218822506
 30
0.0
 11
15.56481789462256
 21
12.19216299127182
 31
0.0
  0
LINE
  5
6FA
330
1F
100
AcDbEntity
  8
OBJECT2
100
AcDbLine
 10
15.56481814227791
 20
12.35834689212251
 30
0.0
 11
15.55291112221016
 21
12.31239766725727
 31
0.0
  0
LINE
  5
6FB
330
1F
100
AcDbEntity
  8
OBJECT2
100
AcDbLine
 10
15.56481814227791
 20
12.35834689212251
 30
0.0
 11
15.55291112221016
 21
12.37939189813946
 31
0.0
  0
LINE
  5
6FC
330
1F
100
AcDbEntity
  8
OBJECT2
100
AcDbLine
 10
15.62296216269118
 20
12.35835778895651
 30
0.0
 11
15.56481814227791
 21
12.35834689212251
 31
0.0
  0
LINE
  5
6FD
330
1F
100
AcDbEntity
  8
OBJECT2
100
AcDbLine
 10
15.55291136986551
 20
12.39402411733411
 30
0.0
 11
15.55291037924428
 21
12.20968188086121
 31
0.0
  0
LINE
  5
6FE
330
1F
100
AcDbEntity
  8
OBJECT2
100
AcDbLine
 10
15.88215416764816
 20
12.46488833416285
 30
0.0
 11
15.88215317702685
 21
12.13881791190525
 31
0.0
  0
ARC
  5
6FF
330
1F
100
AcDbEntity
  8
OBJECT1
100
AcDbCircle
 10
15.46817279394625
 20
13.65582784238253
 30
0.0
 40
0.0210160018173613
100
AcDbArc
 50
134.9936260000023
 51
225.0072939999969
  0
LINE
  5
700
330
1F
100
AcDbEntity
  8
OBJECT1
100
AcDbLine
 10
15.45331421779042
 20
13.64096530374146
 30
0.0
 11
15.46229172309316
 21
13.63198730312805
 31
0.0
  0
LINE
  5
701
330
1F
100
AcDbEntity
  8
OBJECT1
100
AcDbLine
 10
15.35036340649691
 20
13.56576129904434
 30
0.0
 11
15.3071609267713
 21
13.52253801627196
 31
0.0
  0
LINE
  5
702
330
1F
100
AcDbEntity
  8
OBJECT2
100
AcDbLine
 10
15.35750256636902
 20
13.55051043686361
 30
0.0
 11
15.35745972199888
 21
13.44718591369419
 31
0.0
  0
LINE
  5
703
330
1F
100
AcDbEntity
  8
OBJECT1
100
AcDbLine
 10
15.28321835352548
 20
13.48449840697523
 30
0.0
 11
15.28321884883612
 21
13.51613587862826
 31
0.0
  0
LINE
  5
704
330
1F
100
AcDbEntity
  8
OBJECT1
100
AcDbLine
 10
15.28321884883612
 20
13.51613587862826
 30
0.0
 11
15.29168370762923
 21
13.51613587862826
 31
0.0
  0
ARC
  5
705
330
1F
100
AcDbEntity
  8
OBJECT1
100
AcDbCircle
 10
15.2916797451441
 20
13.5380553555756
 30
0.0
 40
0.0219192643569326
100
AcDbArc
 50
270.0104979999987
 51
314.9336399999989
  0
ARC
  5
706
330
1F
100
AcDbEntity
  8
OBJECT2
100
AcDbCircle
 10
15.36728346552567
 20
13.42858625629403
 30
0.0
 40
0.0210037435044939
100
AcDbArc
 50
89.97294199999954
 51
180.0837399999982
  0
ARC
  5
707
330
1F
100
AcDbEntity
  8
OBJECT2
100
AcDbCircle
 10
15.36731838492559
 20
13.1904436260423
 30
0.0
 40
0.0210387672555436
100
AcDbArc
 50
180.0713809999991
 51
269.9324649999982
  0
LINE
  5
708
330
1F
100
AcDbEntity
  8
OBJECT1
100
AcDbLine
 10
15.35038470485432
 20
13.05322128112609
 30
0.0
 11
15.3071386377926
 21
13.09645595604311
 31
0.0
  0
LINE
  5
709
330
1F
100
AcDbEntity
  8
OBJECT2
100
AcDbLine
 10
15.35748201097749
 20
13.06848477372815
 30
0.0
 11
15.35748102035626
 21
13.17184124443363
 31
0.0
  0
ARC
  5
70A
330
1F
100
AcDbEntity
  8
OBJECT1
100
AcDbCircle
 10
15.36583740611982
 20
13.0687418399489
 30
0.0
 40
0.0219017524814077
100
AcDbArc
 50
225.1258239999976
 51
270.0617830000021
  0
LINE
  5
70B
330
1F
100
AcDbEntity
  8
OBJECT1
100
AcDbLine
 10
15.28321884883612
 20
13.13457085255677
 30
0.0
 11
15.28321884883612
 21
13.10285809368676
 31
0.0
  0
LINE
  5
70C
330
1F
100
AcDbEntity
  8
OBJECT1
100
AcDbLine
 10
15.28321884883612
 20
13.10285809368676
 30
0.0
 11
15.29168345997393
 21
13.10286923817616
 31
0.0
  0
ARC
  5
70D
330
1F
100
AcDbEntity
  8
OBJECT1
100
AcDbCircle
 10
15.29160742979104
 20
13.08085441393117
 30
0.0
 40
0.0220145289597877
100
AcDbArc
 50
45.12865399999829
 51
89.80207099999757
  0
LINE
  5
70E
330
1F
100
AcDbEntity
  8
OBJECT2
100
AcDbLine
 10
15.34627957029155
 20
13.19041737457857
 30
0.0
 11
15.34627957029155
 21
13.4285557946898
 31
0.0
  0
LINE
  5
70F
330
1F
100
AcDbEntity
  8
OBJECT2
100
AcDbLine
 10
15.28321884883612
 20
13.48447686096241
 30
0.0
 11
15.28321835352548
 21
13.13457010959083
 31
0.0
  0
ARC
  5
710
330
1F
100
AcDbEntity
  8
OBJECT1
100
AcDbCircle
 10
15.36582081321344
 20
13.55041682315308
 30
0.0
 40
0.0217802200652653
100
AcDbArc
 50
89.89499699999681
 51
135.2099909999989
  0
LINE
  5
711
330
1F
100
AcDbEntity
  8
OBJECT1
100
AcDbLine
 10
15.36586068571978
 20
13.57219687015603
 30
0.0
 11
15.43753832633399
 21
13.57217482883263
 31
0.0
  0
ARC
  5
712
330
1F
100
AcDbEntity
  8
OBJECT1
100
AcDbCircle
 10
15.36818145536315
 20
12.42556811618928
 30
0.0
 40
0.0218954482062188
100
AcDbArc
 50
90.01359899999682
 51
179.985168
  0
ARC
  5
713
330
1F
100
AcDbEntity
  8
OBJECT1
100
AcDbCircle
 10
15.36816362418017
 20
12.14934179399412
 30
0.0
 40
0.0218768856181625
100
AcDbArc
 50
179.9672239999996
 51
270.0346370000029
  0
LINE
  5
714
330
1F
100
AcDbEntity
  8
OBJECT1
100
AcDbLine
 10
15.34628624863705
 20
12.42557405991695
 30
0.0
 11
15.34628674394764
 21
12.14935417676011
 31
0.0
  0
LINE
  5
715
330
1F
100
AcDbEntity
  8
OBJECT1
100
AcDbLine
 10
15.54504821604123
 20
12.12745327396166
 30
0.0
 11
15.36817674991209
 21
12.12746367548507
 31
0.0
  0
ARC
  5
716
330
1F
100
AcDbEntity
  8
OBJECT1
100
AcDbCircle
 10
15.43747566953834
 20
13.60722969622847
 30
0.0
 40
0.0350538714755841
100
AcDbArc
 50
270.1022949999984
 51
44.93230399999946
  0
LINE
  5
717
330
1F
100
AcDbEntity
  8
OBJECT1
100
AcDbLine
 10
15.36817600694615
 20
12.44746381822599
 30
0.0
 11
15.54504747307527
 21
12.44745341670264
 31
0.0
  0
LINE
  5
718
330
1F
100
AcDbEntity
  8
OBJECT1
100
AcDbLine
 10
15.72892511651861
 20
13.0468295450058
 30
0.0
 11
15.36586118103036
 21
13.04684019418451
 31
0.0
  0
LINE
  5
719
330
1F
100
AcDbEntity
  8
OBJECT2
100
AcDbLine
 10
15.50038581655999
 20
13.44960030539616
 30
0.0
 11
15.36729312408317
 21
13.44959015152809
 31
0.0
  0
LINE
  5
71A
330
1F
100
AcDbEntity
  8
OBJECT2
100
AcDbLine
 10
15.50038532124941
 20
13.16940406844227
 30
0.0
 11
15.36729361939373
 21
13.16940431609762
 31
0.0
  0
ARC
  5
71B
330
1F
100
AcDbEntity
  8
OBJECT1
100
AcDbCircle
 10
15.90398597461268
 20
11.82106524118145
 30
0.0
 40
0.0218320552168189
100
AcDbArc
 50
110.5393940000015
 51
180.1214899999961
  0
LINE
  5
71C
330
1F
100
AcDbEntity
  8
OBJECT2
100
AcDbLine
 10
15.88215416764816
 20
11.82101917729218
 30
0.0
 11
15.88213212632476
 21
11.8845945264999
 31
0.0
  0
ARC
  5
71D
330
1F
100
AcDbEntity
  8
OBJECT1
100
AcDbCircle
 10
15.81127422481552
 20
11.59417383971359
 30
0.0
 40
0.0218404609170708
100
AcDbArc
 50
269.8704989999968
 51
0.1295009999965915
  0
ARC
  5
71E
330
1F
100
AcDbEntity
  8
OBJECT1
100
AcDbCircle
 10
15.85492149349343
 20
11.64681842611989
 30
0.0
 40
0.0218064878785526
100
AcDbArc
 50
89.78094499999938
 51
180.2190550000006
  0
LINE
  5
71F
330
1F
100
AcDbEntity
  8
OBJECT1
100
AcDbLine
 10
15.83311494737148
 20
11.64673521393277
 30
0.0
 11
15.83311469971619
 21
11.59422312312202
 31
0.0
  0
ARC
  5
720
330
1F
100
AcDbEntity
  8
OBJECT1
100
AcDbCircle
 10
15.86023964380717
 20
11.6905494022956
 30
0.0
 40
0.0219143610317856
100
AcDbArc
 50
270.0635990000031
 51
359.9644930000005
  0
LINE
  5
721
330
1F
100
AcDbEntity
  8
OBJECT1
100
AcDbLine
 10
15.8602641616838
 20
11.66863512610993
 30
0.0
 11
15.85500470568049
 21
11.66862497224187
 31
0.0
  0
ARC
  5
722
330
1F
100
AcDbEntity
  8
OBJECT1
100
AcDbCircle
 10
15.6448607391361
 20
11.59424939156193
 30
0.0
 40
0.0218947477311978
100
AcDbArc
 50
180.0485229999985
 51
270.0429529999995
  0
LINE
  5
723
330
1F
100
AcDbEntity
  8
OBJECT1
100
AcDbLine
 10
15.72805459972516
 20
11.57233040992522
 30
0.0
 11
15.64487715299802
 21
11.57235464998328
 31
0.0
  0
LINE
  5
724
330
1F
100
AcDbEntity
  8
OBJECT1
100
AcDbLine
 10
15.62298732607806
 20
11.63498522431334
 30
0.0
 11
15.62296602772067
 21
11.59423056975768
 31
0.0
  0
LINE
  5
725
330
1F
100
AcDbEntity
  8
OBJECT1
100
AcDbLine
 10
15.72805484738054
 20
11.57233859267725
 30
0.0
 11
15.81122494140703
 21
11.57233336481292
 31
0.0
  0
LINE
  5
726
330
1F
100
AcDbEntity
  8
OBJECT2
100
AcDbLine
 10
15.62298830534953
 20
11.85439161547404
 30
0.0
 11
15.62298634680667
 21
11.63496974585589
 31
0.0
  0
LINE
  5
727
330
1F
100
AcDbEntity
  8
OBJECT1
100
AcDbLine
 10
15.88215416764816
 20
11.82101917729218
 30
0.0
 11
15.88215342468214
 21
11.69053578125309
 31
0.0
  0
LINE
  5
728
330
1F
100
AcDbEntity
  8
OBJECT1
100
AcDbLine
 10
16.21330201924971
 20
11.96068538489331
 30
0.0
 11
15.89632624326071
 21
11.84150943539535
 31
0.0
  0
LINE
  5
729
330
1F
100
AcDbEntity
  8
OBJECT2
100
AcDbLine
 10
15.72805484738054
 20
13.00129688323622
 30
0.0
 11
15.72805484738054
 21
11.57233859267725
 31
0.0
  0
LINE
  5
72A
330
1F
100
AcDbEntity
  8
OBJECT2
100
AcDbLine
 10
15.83311494737148
 20
11.64673521393277
 30
0.0
 11
15.83311569033745
 21
12.8655111799741
 31
0.0
  0
LINE
  5
72B
330
1F
100
AcDbEntity
  8
OBJECT2
100
AcDbLine
 10
15.62294807694647
 20
11.85439160827766
 30
0.0
 11
15.62298732607806
 21
13.00131596282224
 31
0.0
  0
LINE
  5
72C
330
1F
100
AcDbEntity
  8
OBJECT2
100
AcDbLine
 10
15.94185195413345
 20
13.15242805871244
 30
0.0
 11
15.46229172309316
 21
13.63198730312805
 31
0.0
  0
LINE
  5
72D
330
1F
100
AcDbEntity
  8
OBJECT1
100
AcDbLine
 10
15.55293530632565
 20
11.9243634263706
 30
0.0
 11
15.55293431570433
 21
11.74002118989758
 31
0.0
  0
LINE
  5
72E
330
1F
100
AcDbEntity
  8
OBJECT2
100
AcDbLine
 10
15.62298634680667
 20
11.77568875655188
 30
0.0
 11
15.56484183108267
 21
11.77570955959859
 31
0.0
  0
LINE
  5
72F
330
1F
100
AcDbEntity
  8
OBJECT2
100
AcDbLine
 10
15.56484183108267
 20
11.77570955959859
 30
0.0
 11
15.55293530632565
 21
11.75464275991359
 31
0.0
  0
LINE
  5
730
330
1F
100
AcDbEntity
  8
OBJECT2
100
AcDbLine
 10
15.56484183108267
 20
11.77570955959859
 30
0.0
 11
15.55293530632565
 21
11.82163748610653
 31
0.0
  0
LINE
  5
731
330
1F
100
AcDbEntity
  8
OBJECT1
100
AcDbLine
 10
15.62298634680667
 20
11.72248149726144
 30
0.0
 11
15.56484183108267
 21
11.7225023003082
 31
0.0
  0
LINE
  5
732
330
1F
100
AcDbEntity
  8
OBJECT1
100
AcDbLine
 10
15.56484183108267
 20
11.7225023003082
 30
0.0
 11
15.55293431570433
 21
11.74002118989758
 31
0.0
  0
LINE
  5
733
330
1F
100
AcDbEntity
  8
OBJECT2
100
AcDbLine
 10
15.56484207873805
 20
11.88868620115894
 30
0.0
 11
15.55293505867035
 21
11.84273697629365
 31
0.0
  0
LINE
  5
734
330
1F
100
AcDbEntity
  8
OBJECT2
100
AcDbLine
 10
15.62298609915137
 20
11.88869709799305
 30
0.0
 11
15.56484207873805
 21
11.88868620115894
 31
0.0
  0
LINE
  5
735
330
1F
100
AcDbEntity
  8
OBJECT2
100
AcDbLine
 10
15.56484207873805
 20
11.88868620115894
 30
0.0
 11
15.55293505867035
 21
11.909731207176
 31
0.0
  0
LINE
  5
736
330
1F
100
AcDbEntity
  8
OBJECT1
100
AcDbLine
 10
15.62298830534953
 20
11.94190336687947
 30
0.0
 11
15.56484158342738
 21
11.94189296513869
 31
0.0
  0
LINE
  5
737
330
1F
100
AcDbEntity
  8
OBJECT1
100
AcDbLine
 10
15.56484158342738
 20
11.94189296513869
 30
0.0
 11
15.55293530632565
 21
11.9243634263706
 31
0.0
  0
LINE
  5
738
330
1F
100
AcDbEntity
  8
OBJECT1
100
AcDbLine
 10
15.56691620987666
 20
11.94189333626403
 30
0.0
 11
15.56691667599293
 21
12.10556351565261
 31
0.0
  0
LINE
  5
739
330
1F
100
AcDbEntity
  8
OBJECT2
100
AcDbLine
 10
16.01171801948893
 20
13.23149348573778
 30
0.0
 11
15.98474142093382
 21
13.20449410289339
 31
0.0
  0
ARC
  5
73A
330
1F
100
AcDbEntity
  8
OBJECT2
100
AcDbCircle
 10
15.50038036814305
 20
13.42858031256636
 30
0.0
 40
0.0210198544299768
100
AcDbArc
 50
359.989058999997
 51
89.98519499999973
  0
ARC
  5
73B
330
1F
100
AcDbEntity
  8
OBJECT2
100
AcDbCircle
 10
15.50035931744096
 20
13.1904436260423
 30
0.0
 40
0.0210394677305646
100
AcDbArc
 50
270.0707550000004
 51
359.9871370000004
  0
LINE
  5
73C
330
1F
100
AcDbEntity
  8
OBJECT2
100
AcDbLine
 10
15.28175964695285
 20
13.53262533263156
 30
0.0
 11
15.28175964695285
 21
13.08647042096251
 31
0.0
  0
LWPOLYLINE
  5
73D
330
1F
100
AcDbEntity
  8
OBJECT2
100
AcDbPolyline
 90
        9
 70
     0
 43
0.0
 10
14.93510372256133
 20
13.6121567617092
 42
-0.1905501701278108
 10
14.92905473116036
 20
13.59510461139709
 42
-0.1007393744425078
 10
14.9025485903719
 20
13.57484881932427
 42
-0.0588230483370789
 10
14.86818649100666
 20
13.56291705264865
 42
-0.0452811016098142
 10
14.82137503341701
 20
13.55697790718719
 42
-0.0452811016098186
 10
14.77425915642521
 20
13.55956250498499
 42
-0.0588230483370834
 10
14.73913342045475
 20
13.56901256325582
 42
-0.1007393744425082
 10
14.71124981205548
 20
13.58732586428615
 42
-0.1905501701278099
 10
14.70399977296699
 20
13.6039030492237
 42
-0.1905501701278218
  0
LINE
  5
73E
330
1F
100
AcDbEntity
  8
OBJECT1
100
AcDbLine
 10
14.70646907184101
 20
13.8078877913986
 30
0.0
 11
14.7531574749033
 21
13.80789039901858
 31
0.0
  0
LINE
  5
73F
330
1F
100
AcDbEntity
  8
OBJECT2
100
AcDbLine
 10
14.91621800585394
 20
13.76245572320383
 30
0.0
 11
14.89344083339992
 21
13.7678507897879
 31
0.0
  0
LINE
  5
740
330
1F
100
AcDbEntity
  8
OBJECT1
100
AcDbLine
 10
14.88591837126944
 20
13.80790480098451
 30
0.0
 11
14.96814203269164
 21
13.80790819949842
 31
0.0
  0
LINE
  5
741
330
1F
100
AcDbEntity
  8
OBJECT1
100
AcDbLine
 10
14.88591962214184
 20
13.77764118856347
 30
0.0
 11
14.96814328356401
 21
13.77764458707744
 31
0.0
  0
LINE
  5
742
330
1F
100
AcDbEntity
  8
OBJECT2
100
AcDbLine
 10
14.88591837126944
 20
13.80790480098451
 30
0.0
 11
14.7531717391472
 21
13.80790480098451
 31
0.0
  0
LINE
  5
743
330
1F
100
AcDbEntity
  8
OBJECT2
100
AcDbLine
 10
14.77352743802813
 20
13.81374587104463
 30
0.0
 11
14.81952910446003
 21
13.80789039901858
 31
0.0
  0
LINE
  5
744
330
1F
100
AcDbEntity
  8
OBJECT2
100
AcDbLine
 10
14.75317174055192
 20
13.80790480138759
 30
0.0
 11
14.75306852079421
 21
13.80790481258489
 31
0.0
  0
LINE
  5
745
330
1F
100
AcDbEntity
  8
OBJECT2
100
AcDbLine
 10
14.75312154935684
 20
13.80789039901858
 30
0.0
 11
14.77352743802813
 21
13.81374587104463
 31
0.0
  0
LINE
  5
746
330
1F
100
AcDbEntity
  8
OBJECT2
100
AcDbLine
 10
14.75312154935684
 20
13.80789039901858
 30
0.0
 11
14.73357803267325
 21
13.81320247538136
 31
0.0
  0
LINE
  5
747
330
1F
100
AcDbEntity
  8
OBJECT2
100
AcDbLine
 10
14.89344083339992
 20
13.7678507897879
 30
0.0
 11
14.87136845844685
 21
13.7678507897879
 31
0.0
  0
LINE
  5
748
330
1F
100
AcDbEntity
  8
OBJECT2
100
AcDbLine
 10
14.86554949808709
 20
13.81375538814384
 30
0.0
 11
14.88593635256
 21
13.80789039901858
 31
0.0
  0
LINE
  5
749
330
1F
100
AcDbEntity
  8
OBJECT2
100
AcDbLine
 10
14.88654958058253
 20
13.76785610150139
 30
0.0
 11
14.88654958058253
 21
13.77764121460129
 31
0.0
  0
LINE
  5
74A
330
1F
100
AcDbEntity
  8
OBJECT2
100
AcDbLine
 10
14.88593635256
 20
13.80789039901858
 30
0.0
 11
14.90549890344195
 21
13.81320247538136
 31
0.0
  0
LINE
  5
74B
330
1F
100
AcDbEntity
  8
OBJECT2
100
AcDbLine
 10
14.81958558263932
 20
13.80789759678205
 30
0.0
 11
14.81947246109794
 21
13.80789760905352
 31
0.0
  0
LINE
  5
74C
330
1F
100
AcDbEntity
  8
OBJECT2
100
AcDbLine
 10
14.81952910446003
 20
13.80789039901858
 30
0.0
 11
14.86554949808709
 21
13.81375538814384
 31
0.0
  0
LINE
  5
74D
330
1F
100
AcDbEntity
  8
OBJECT2
100
AcDbLine
 10
15.28175964695285
 20
13.53262533263156
 30
0.0
 11
15.2535229439411
 21
13.45813675558028
 31
0.0
  0
LINE
  5
74E
330
1F
100
AcDbEntity
  8
OBJECT2
100
AcDbLine
 10
15.2535229439411
 20
13.45813675558028
 30
0.0
 11
15.1081327112831
 21
13.45808980362702
 31
0.0
  0
LINE
  5
74F
330
1F
100
AcDbEntity
  8
OBJECT1
100
AcDbLine
 10
14.93510372256133
 20
13.6121567617092
 30
0.0
 11
15.1081327112831
 21
13.6121567617092
 31
0.0
  0
ARC
  5
750
330
1F
100
AcDbEntity
  8
OBJECT1
100
AcDbCircle
 10
14.96814061124573
 20
13.84229866815869
 30
0.0
 40
0.0646540811365122
100
AcDbArc
 50
270.0023681809024
 51
335.208195711807
  0
LINE
  5
751
330
1F
100
AcDbEntity
  8
OBJECT1
100
AcDbLine
 10
14.93510372256133
 20
13.6121567617092
 30
0.0
 11
14.93510372256133
 21
13.73045997400154
 31
0.0
  0
LINE
  5
752
330
1F
100
AcDbEntity
  8
OBJECT1
100
AcDbLine
 10
14.88765515157396
 20
13.73045997400154
 30
0.0
 11
14.93510372256133
 21
13.73045997400154
 31
0.0
  0
LINE
  5
753
330
1F
100
AcDbEntity
  8
OBJECT2
100
AcDbLine
 10
14.88764307549425
 20
13.74034394828882
 30
0.0
 11
14.88765515157396
 21
13.73045997400154
 31
0.0
  0
LINE
  5
754
330
1F
100
AcDbEntity
  8
OBJECT2
100
AcDbLine
 10
14.88007897265791
 20
13.67543522409815
 30
0.0
 11
14.93510372256133
 21
13.67543522409815
 31
0.0
  0
LINE
  5
755
330
1F
100
AcDbEntity
  8
OBJECT2
100
AcDbLine
 10
14.91624248598611
 20
13.74034976255259
 30
0.0
 11
14.88764307549425
 21
13.74034394828882
 31
0.0
  0
LINE
  5
756
330
1F
100
AcDbEntity
  8
OBJECT1
100
AcDbLine
 10
14.91621800585394
 20
13.76245572320383
 30
0.0
 11
14.91624248598611
 21
13.74034976255259
 31
0.0
  0
LINE
  5
757
330
1F
100
AcDbEntity
  8
OBJECT1
100
AcDbLine
 10
15.1081327112831
 20
13.60664627675916
 30
0.0
 11
15.25344122527127
 21
13.60667807677694
 31
0.0
  0
LINE
  5
758
330
1F
100
AcDbEntity
  8
OBJECT1
100
AcDbLine
 10
15.28175964695285
 20
13.53262533263156
 30
0.0
 11
15.25344122527127
 21
13.60667807677694
 31
0.0
  0
LINE
  5
759
330
1F
100
AcDbEntity
  8
OBJECT2
100
AcDbLine
 10
15.28175964695285
 20
13.35501641928956
 30
0.0
 11
15.2535229439411
 21
13.45813675558028
 31
0.0
  0
ARC
  5
75A
330
1F
100
AcDbEntity
  8
OBJECT2
100
AcDbCircle
 10
14.5444279982471
 20
13.30952063724046
 30
0.0
 40
0.1281038108673756
100
AcDbArc
 50
186.1100820549659
 51
200.8745671626895
  0
ARC
  5
75B
330
1F
100
AcDbEntity
  8
OBJECT2
100
AcDbCircle
 10
14.51881820660503
 20
13.30337589857399
 30
0.0
 40
0.0640747948830571
100
AcDbArc
 50
133.56256725289
 51
178.6070338621172
  0
LINE
  5
75C
330
1F
100
AcDbEntity
  8
OBJECT2
100
AcDbLine
 10
14.47464738420279
 20
13.30970467942594
 30
0.0
 11
14.47465477759271
 21
13.34983909493641
 31
0.0
  0
LINE
  5
75D
330
1F
100
AcDbEntity
  8
OBJECT2
100
AcDbLine
 10
14.47465477759271
 20
13.34983909493641
 30
0.0
 11
14.54444267331626
 21
13.39008314139923
 31
0.0
  0
LINE
  5
75E
330
1F
100
AcDbEntity
  8
OBJECT2
100
AcDbLine
 10
14.55053743124543
 20
13.43477577157713
 30
0.0
 11
14.57496221130367
 21
13.43477134967699
 31
0.0
  0
ARC
  5
75F
330
1F
100
AcDbEntity
  8
OBJECT2
100
AcDbCircle
 10
14.5444279982471
 20
13.30952063724046
 30
0.0
 40
0.0805623747050855
100
AcDbArc
 50
205.281532903334
 51
181.7031163143137
  0
LINE
  5
760
330
1F
100
AcDbEntity
  8
OBJECT2
100
AcDbLine
 10
14.49355288550367
 20
13.31424081023388
 30
0.0
 11
14.41705191566848
 21
13.2958853907937
 31
0.0
  0
LINE
  5
761
330
1F
100
AcDbEntity
  8
OBJECT2
100
AcDbLine
 10
14.57493315086259
 20
13.44566902312001
 30
0.0
 11
14.57495143785954
 21
13.43899469206238
 31
0.0
  0
LINE
  5
762
330
1F
100
AcDbEntity
  8
OBJECT2
100
AcDbLine
 10
14.28030919871071
 20
13.25790591967265
 30
0.0
 11
14.30819134093627
 21
13.15614876024491
 31
0.0
  0
LINE
  5
763
330
1F
100
AcDbEntity
  8
OBJECT2
100
AcDbLine
 10
14.28030919871071
 20
13.08644318140594
 30
0.0
 11
14.28030919871071
 21
13.53259809307493
 31
0.0
  0
LINE
  5
764
330
1F
100
AcDbEntity
  8
OBJECT2
100
AcDbLine
 10
14.65997997304427
 20
13.6039030492237
 30
0.0
 11
14.65997997304427
 21
13.35167920274361
 31
0.0
  0
LINE
  5
765
330
1F
100
AcDbEntity
  8
OBJECT2
100
AcDbLine
 10
14.64102028405207
 20
13.56263448679615
 30
0.0
 11
14.64102028405207
 21
13.38160533008144
 31
0.0
  0
LINE
  5
766
330
1F
100
AcDbEntity
  8
OBJECT2
100
AcDbLine
 10
14.55055268152875
 20
13.44567644697852
 30
0.0
 11
14.57493315086259
 21
13.44566902312001
 31
0.0
  0
LINE
  5
767
330
1F
100
AcDbEntity
  8
OBJECT1
100
AcDbLine
 10
14.30723457006945
 20
13.6066542867189
 30
0.0
 11
14.44874011823748
 21
13.60665428671885
 31
0.0
  0
LINE
  5
768
330
1F
100
AcDbEntity
  8
OBJECT2
100
AcDbLine
 10
14.46473163115342
 20
13.56263448679615
 30
0.0
 11
14.46473163115342
 21
13.38375770242325
 31
0.0
  0
LINE
  5
769
330
1F
100
AcDbEntity
  8
OBJECT1
100
AcDbLine
 10
14.65997997304427
 20
13.6039030492237
 30
0.0
 11
14.70399977296699
 21
13.6039030492237
 31
0.0
  0
LINE
  5
76A
330
1F
100
AcDbEntity
  8
OBJECT1
100
AcDbLine
 10
14.64622378556842
 20
13.67543522409815
 30
0.0
 11
14.64622378556839
 21
13.73045997400154
 31
0.0
  0
LINE
  5
76B
330
1F
100
AcDbEntity
  8
OBJECT2
100
AcDbLine
 10
14.69576051414989
 20
13.73045997400154
 30
0.0
 11
14.70399977296699
 21
13.73045997400154
 31
0.0
  0
LINE
  5
76C
330
1F
100
AcDbEntity
  8
OBJECT2
100
AcDbLine
 10
14.69576407607294
 20
13.67307648939217
 30
0.0
 11
14.69576051418161
 21
13.73045946257209
 31
0.0
  0
LINE
  5
76D
330
1F
100
AcDbEntity
  8
OBJECT2
100
AcDbLine
 10
14.66550046368436
 20
13.6730746108611
 30
0.0
 11
14.66549690164472
 21
13.73045997400154
 31
0.0
  0
LINE
  5
76E
330
1F
100
AcDbEntity
  8
OBJECT2
100
AcDbLine
 10
14.72286100954224
 20
13.76245572320383
 30
0.0
 11
14.74562059674491
 21
13.7678507897879
 31
0.0
  0
LINE
  5
76F
330
1F
100
AcDbEntity
  8
OBJECT2
100
AcDbLine
 10
14.72286100954224
 20
13.76245572320383
 30
0.0
 11
14.72286100954221
 21
13.74031044807375
 31
0.0
  0
LINE
  5
770
330
1F
100
AcDbEntity
  8
OBJECT2
100
AcDbLine
 10
14.70647076211085
 20
13.77762417899893
 30
0.0
 11
14.75315916517314
 21
13.77762678661892
 31
0.0
  0
LINE
  5
771
330
1F
100
AcDbEntity
  8
OBJECT1
100
AcDbLine
 10
14.66549690164472
 20
13.73045997400154
 30
0.0
 11
14.66549463921617
 21
13.76690827170611
 31
0.0
  0
LINE
  5
772
330
1F
100
AcDbEntity
  8
OBJECT2
100
AcDbLine
 10
14.69576051418161
 20
13.73045946257209
 30
0.0
 11
14.69575825160478
 21
13.76691015023718
 31
0.0
  0
ARC
  5
773
330
1F
100
AcDbEntity
  8
OBJECT2
100
AcDbCircle
 10
14.70647161537488
 20
13.76691081523992
 30
0.0
 40
0.0107133637907434
100
AcDbArc
 50
90.0035564789937
 51
180.0035564789937
  0
LINE
  5
774
330
1F
100
AcDbEntity
  8
OBJECT1
100
AcDbLine
 10
14.64622378556839
 20
13.73045997400154
 30
0.0
 11
14.66549690164472
 21
13.73045997400154
 31
0.0
  0
LINE
  5
775
330
1F
100
AcDbEntity
  8
OBJECT2
100
AcDbLine
 10
14.70399977296699
 20
13.64792284914645
 30
0.0
 11
14.70399977296699
 21
13.73045997400154
 31
0.0
  0
LINE
  5
776
330
1F
100
AcDbEntity
  8
OBJECT2
100
AcDbLine
 10
14.75145279459889
 20
13.74031626078729
 30
0.0
 11
14.72286100954221
 21
13.74031044807375
 31
0.0
  0
LINE
  5
777
330
1F
100
AcDbEntity
  8
OBJECT2
100
AcDbLine
 10
14.66550046368436
 20
13.6730746108611
 30
0.0
 11
14.69576407607294
 21
13.67307648939217
 31
0.0
  0
LINE
  5
778
330
1F
100
AcDbEntity
  8
OBJECT1
100
AcDbLine
 10
14.64622378556842
 20
13.67543522409815
 30
0.0
 11
14.70399977296699
 21
13.64792284914645
 31
0.0
  0
LINE
  5
779
330
1F
100
AcDbEntity
  8
OBJECT1
100
AcDbLine
 10
14.70399977296699
 20
13.6039030492237
 30
0.0
 11
14.70399977296699
 21
13.64792284914645
 31
0.0
  0
LINE
  5
77A
330
1F
100
AcDbEntity
  8
OBJECT2
100
AcDbLine
 10
14.75256266707271
 20
13.76782886194482
 30
0.0
 11
14.75256266707271
 21
13.77762675330356
 31
0.0
  0
LINE
  5
77B
330
1F
100
AcDbEntity
  8
OBJECT2
100
AcDbLine
 10
14.74562059674491
 20
13.7678507897879
 30
0.0
 11
14.75256266707271
 21
13.7678507897879
 31
0.0
  0
LINE
  5
77C
330
1F
100
AcDbEntity
  8
OBJECT2
100
AcDbLine
 10
14.75145279459889
 20
13.74031626078729
 30
0.0
 11
14.75144075234732
 21
13.73045997400154
 31
0.0
  0
LINE
  5
77D
330
1F
100
AcDbEntity
  8
OBJECT2
100
AcDbLine
 10
14.70399977296699
 20
13.73045997400154
 30
0.0
 11
14.75144075234732
 21
13.73045997400154
 31
0.0
  0
LINE
  5
77E
330
1F
100
AcDbEntity
  8
OBJECT1
100
AcDbLine
 10
14.46473163115342
 20
13.56263448679615
 30
0.0
 11
14.64102028405207
 21
13.56263448679615
 31
0.0
  0
LINE
  5
77F
330
1F
100
AcDbEntity
  8
OBJECT1
100
AcDbLine
 10
14.46473163115342
 20
13.56263448679615
 30
0.0
 11
14.44874011823748
 21
13.60665428671885
 31
0.0
  0
LINE
  5
780
330
1F
100
AcDbEntity
  8
OBJECT1
100
AcDbLine
 10
14.65997997304427
 20
13.6039030492237
 30
0.0
 11
14.64102028405207
 21
13.56263448679615
 31
0.0
  0
LINE
  5
781
330
1F
100
AcDbEntity
  8
OBJECT2
100
AcDbLine
 10
14.30819134093627
 20
13.46294743989929
 30
0.0
 11
14.28030919871071
 21
13.53259809307493
 31
0.0
  0
LINE
  5
782
330
1F
100
AcDbEntity
  8
OBJECT2
100
AcDbLine
 10
14.28030919871071
 20
13.53259809307493
 30
0.0
 11
14.28030919871071
 21
13.53259809307493
 31
0.0
  0
LINE
  5
783
330
1F
100
AcDbEntity
  8
OBJECT1
100
AcDbLine
 10
14.30723457006945
 20
13.6066542867189
 30
0.0
 11
14.28030919871071
 21
13.53259809307493
 31
0.0
  0
ARC
  5
784
330
1F
100
AcDbEntity
  8
OBJECT2
100
AcDbCircle
 10
14.51881820660503
 20
13.30337589857399
 30
0.0
 40
0.0968844261692163
100
AcDbArc
 50
138.9137048659549
 51
183.7108178385
  0
LINE
  5
785
330
1F
100
AcDbEntity
  8
OBJECT2
100
AcDbLine
 10
14.28030919871071
 20
13.36116259436479
 30
0.0
 11
14.30819134093627
 21
13.46294743989929
 31
0.0
  0
LINE
  5
786
330
1F
100
AcDbEntity
  8
OBJECT2
100
AcDbLine
 10
14.4369316541478
 20
13.46294743989929
 30
0.0
 11
14.46470439159679
 21
13.53259809307493
 31
0.0
  0
LINE
  5
787
330
1F
100
AcDbEntity
  8
OBJECT2
100
AcDbLine
 10
14.4369316541478
 20
13.46294743989929
 30
0.0
 11
14.30819134093627
 21
13.46294743989929
 31
0.0
  0
LINE
  5
788
330
1F
100
AcDbEntity
  8
OBJECT2
100
AcDbLine
 10
14.55054356994998
 20
13.43899596455182
 30
0.0
 11
14.55053783381171
 21
13.43479030801754
 31
0.0
  0
LINE
  5
789
330
1F
100
AcDbEntity
  8
OBJECT2
100
AcDbLine
 10
14.53833246068359
 20
13.43477798118399
 30
0.0
 11
14.55053743124543
 21
13.43477577157713
 31
0.0
  0
LINE
  5
78A
330
1F
100
AcDbEntity
  8
OBJECT2
100
AcDbLine
 10
14.55055268152875
 20
13.44567644697852
 30
0.0
 11
14.55054356994998
 21
13.43899596455182
 31
0.0
  0
ARC
  5
78B
330
1F
100
AcDbEntity
  8
OBJECT2
100
AcDbCircle
 10
14.51881820660503
 20
13.30337589857399
 30
0.0
 40
0.0968844261692163
100
AcDbArc
 50
103.8520884494606
 51
138.9137048659549
  0
LINE
  5
78C
330
1F
100
AcDbEntity
  8
OBJECT2
100
AcDbLine
 10
14.49562250239358
 20
13.40605867178047
 30
0.0
 11
14.4711973312954
 21
13.41037289203896
 31
0.0
  0
LINE
  5
78D
330
1F
100
AcDbEntity
  8
OBJECT2
100
AcDbLine
 10
14.51390782526667
 20
13.44566159926151
 30
0.0
 11
14.51390771944119
 21
13.43899787453975
 31
0.0
  0
LINE
  5
78E
330
1F
100
AcDbEntity
  8
OBJECT2
100
AcDbLine
 10
14.47119767659114
 20
13.43479013536963
 30
0.0
 11
14.51390765121894
 21
13.43478240308942
 31
0.0
  0
LINE
  5
78F
330
1F
100
AcDbEntity
  8
OBJECT2
100
AcDbLine
 10
14.53833283775168
 20
13.44566902312001
 30
0.0
 11
14.51390782526667
 21
13.44566159926151
 31
0.0
  0
LINE
  5
790
330
1F
100
AcDbEntity
  8
OBJECT2
100
AcDbLine
 10
14.47119767659114
 20
13.43479013536963
 30
0.0
 11
14.4711973312954
 21
13.41037289203896
 31
0.0
  0
LINE
  5
791
330
1F
100
AcDbEntity
  8
OBJECT2
100
AcDbLine
 10
14.51390771944119
 20
13.43899787453975
 30
0.0
 11
14.51390765261879
 21
13.43479013536963
 31
0.0
  0
LINE
  5
792
330
1F
100
AcDbEntity
  8
OBJECT2
100
AcDbLine
 10
14.53833283775168
 20
13.44566902312001
 30
0.0
 11
14.53833262611016
 21
13.43899660116201
 31
0.0
  0
LINE
  5
793
330
1F
100
AcDbEntity
  8
OBJECT2
100
AcDbLine
 10
14.51933207612904
 20
13.40187084755112
 30
0.0
 11
14.49562250239358
 21
13.40605867178047
 31
0.0
  0
LINE
  5
794
330
1F
100
AcDbEntity
  8
OBJECT2
100
AcDbLine
 10
14.49562250239358
 20
13.37361681335582
 30
0.0
 11
14.49562250239358
 21
13.40605867178047
 31
0.0
  0
LINE
  5
795
330
1F
100
AcDbEntity
  8
OBJECT2
100
AcDbLine
 10
14.51390765121894
 20
13.43478240308942
 30
0.0
 11
14.53833246068359
 21
13.43477798118399
 31
0.0
  0
LINE
  5
796
330
1F
100
AcDbEntity
  8
OBJECT2
100
AcDbLine
 10
14.53833262611016
 20
13.43899660116201
 30
0.0
 11
14.5383324924559
 21
13.43478288415903
 31
0.0
  0
LINE
  5
797
330
1F
100
AcDbEntity
  8
OBJECT2
100
AcDbLine
 10
14.45963166413926
 20
13.38008016980509
 30
0.0
 11
14.4369316541478
 21
13.46294743989929
 31
0.0
  0
LINE
  5
798
330
1F
100
AcDbEntity
  8
OBJECT2
100
AcDbLine
 10
14.43690396804106
 20
13.15614876024491
 30
0.0
 11
14.30819134093627
 21
13.15614876024491
 31
0.0
  0
LINE
  5
799
330
1F
100
AcDbEntity
  8
OBJECT1
100
AcDbLine
 10
14.46473163115342
 20
13.05640678768472
 30
0.0
 11
14.44874011823748
 21
13.01238698776197
 31
0.0
  0
LINE
  5
79A
330
1F
100
AcDbEntity
  8
OBJECT2
100
AcDbLine
 10
14.92379979910666
 20
13.58960832325917
 30
0.0
 11
14.92379979910666
 21
13.00688451277167
 31
0.0
  0
LINE
  5
79B
330
1F
100
AcDbEntity
  8
OBJECT1
100
AcDbLine
 10
14.65997997304427
 20
13.01513822525717
 30
0.0
 11
14.92379979910666
 21
13.01513822525717
 31
0.0
  0
LINE
  5
79C
330
1F
100
AcDbEntity
  8
OBJECT2
100
AcDbLine
 10
14.59326317550005
 20
13.43476803644196
 30
0.0
 11
14.59324815513511
 21
13.37360113959047
 31
0.0
  0
ARC
  5
79D
330
1F
100
AcDbEntity
  8
OBJECT2
100
AcDbCircle
 10
14.57003778988914
 20
13.31566537590688
 30
0.0
 40
0.0968844261692163
100
AcDbArc
 50
283.4923246088208
 51
76.13357779710172
  0
LINE
  5
79E
330
1F
100
AcDbEntity
  8
OBJECT2
100
AcDbLine
 10
14.57495143785954
 20
13.43899469206238
 30
0.0
 11
14.57496301894457
 21
13.43476786379406
 31
0.0
  0
LINE
  5
79F
330
1F
100
AcDbEntity
  8
OBJECT2
100
AcDbLine
 10
14.57496221130367
 20
13.43477134967699
 30
0.0
 11
14.59326317550005
 21
13.43476803644196
 31
0.0
  0
LINE
  5
7A0
330
1F
100
AcDbEntity
  8
OBJECT2
100
AcDbLine
 10
14.64102028405207
 20
13.24972542173227
 30
0.0
 11
14.64102028405207
 21
13.05640678768472
 31
0.0
  0
LINE
  5
7A1
330
1F
100
AcDbEntity
  8
OBJECT2
100
AcDbLine
 10
14.65997997304427
 20
13.27965154907011
 30
0.0
 11
14.65997997304427
 21
13.01513822525717
 31
0.0
  0
LINE
  5
7A2
330
1F
100
AcDbEntity
  8
OBJECT1
100
AcDbLine
 10
14.46473163115342
 20
13.05640678768472
 30
0.0
 11
14.64102028405207
 21
13.05640678768472
 31
0.0
  0
ARC
  5
7A3
330
1F
100
AcDbEntity
  8
OBJECT2
100
AcDbCircle
 10
14.51881820660503
 20
13.30337589857399
 30
0.0
 40
0.0968844261692163
100
AcDbArc
 50
248.2590240787818
 51
283.4923246088208
  0
LINE
  5
7A4
330
1F
100
AcDbEntity
  8
OBJECT2
100
AcDbLine
 10
14.47463992987567
 20
13.26923947148495
 30
0.0
 11
14.47464114748874
 21
13.27584918486687
 31
0.0
  0
LINE
  5
7A5
330
1F
100
AcDbEntity
  8
OBJECT2
100
AcDbLine
 10
14.54444267331626
 20
13.22895847837739
 30
0.0
 11
14.47463992987567
 21
13.26923947148495
 31
0.0
  0
LINE
  5
7A6
330
1F
100
AcDbEntity
  8
OBJECT2
100
AcDbLine
 10
14.50123354118196
 20
13.28222968620181
 30
0.0
 11
14.42473257134676
 21
13.26387426676163
 31
0.0
  0
ARC
  5
7A7
330
1F
100
AcDbEntity
  8
OBJECT2
100
AcDbCircle
 10
14.5444279982471
 20
13.30952063724046
 30
0.0
 40
0.0510936114376935
100
AcDbArc
 50
212.2853543227888
 51
174.6992948948573
  0
LINE
  5
7A8
330
1F
100
AcDbEntity
  8
OBJECT2
100
AcDbLine
 10
14.61418585324079
 20
13.34979437913736
 30
0.0
 11
14.61418585324079
 21
13.26920235219236
 31
0.0
  0
ARC
  5
7A9
330
1F
100
AcDbEntity
  8
OBJECT2
100
AcDbCircle
 10
14.57003778988914
 20
13.31566537590688
 30
0.0
 40
0.0640747948830571
100
AcDbArc
 50
313.5625672528992
 51
68.76183783941328
  0
LINE
  5
7AA
330
1F
100
AcDbEntity
  8
OBJECT2
100
AcDbLine
 10
14.54444267331626
 20
13.39008314139923
 30
0.0
 11
14.61418585324079
 21
13.34979437913736
 31
0.0
  0
LINE
  5
7AB
330
1F
100
AcDbEntity
  8
OBJECT2
100
AcDbLine
 10
14.4638357986542
 20
13.30955085061813
 30
0.0
 11
14.4638357986542
 21
13.30955085061813
 31
0.0
  0
LINE
  5
7AC
330
1F
100
AcDbEntity
  8
OBJECT2
100
AcDbLine
 10
14.61418585324079
 20
13.26920235219236
 30
0.0
 11
14.54444267331626
 21
13.22895847837739
 31
0.0
  0
LINE
  5
7AD
330
1F
100
AcDbEntity
  8
OBJECT2
100
AcDbLine
 10
14.58862821928517
 20
13.22049169683671
 30
0.0
 11
14.54142280640442
 21
13.20916536783542
 31
0.0
  0
LINE
  5
7AE
330
1F
100
AcDbEntity
  8
OBJECT2
100
AcDbLine
 10
14.46473163115342
 20
13.22299409472478
 30
0.0
 11
14.46473163115342
 21
13.05640678768472
 31
0.0
  0
LINE
  5
7AF
330
1F
100
AcDbEntity
  8
OBJECT2
100
AcDbLine
 10
14.43690396804106
 20
13.15614876024491
 30
0.0
 11
14.46470439159679
 21
13.08644318140594
 31
0.0
  0
ARC
  5
7B0
330
1F
100
AcDbEntity
  8
OBJECT2
100
AcDbCircle
 10
14.51881820660503
 20
13.30337589857399
 30
0.0
 40
0.0968844261692163
100
AcDbArc
 50
203.2738313791526
 51
221.086295134045
  0
ARC
  5
7B1
330
1F
100
AcDbEntity
  8
OBJECT2
100
AcDbCircle
 10
14.51881820660503
 20
13.30337589857399
 30
0.0
 40
0.0640747948830571
100
AcDbArc
 50
208.3776153555318
 51
253.4220819647551
  0
ARC
  5
7B2
330
1F
100
AcDbEntity
  8
OBJECT2
100
AcDbCircle
 10
14.51881820660503
 20
13.30337589857399
 30
0.0
 40
0.0968844261692163
100
AcDbArc
 50
221.086295134045
 51
248.2590240787818
  0
LINE
  5
7B3
330
1F
100
AcDbEntity
  8
OBJECT2
100
AcDbLine
 10
14.45680238415428
 20
13.22894049167715
 30
0.0
 11
14.43690396804106
 21
13.15614876024491
 31
0.0
  0
LINE
  5
7B4
330
1F
100
AcDbEntity
  8
OBJECT1
100
AcDbLine
 10
14.65997997304427
 20
13.01513822525717
 30
0.0
 11
14.64102028405207
 21
13.05640678768472
 31
0.0
  0
LINE
  5
7B5
330
1F
100
AcDbEntity
  8
OBJECT1
100
AcDbLine
 10
14.92379979910666
 20
13.00688451277167
 30
0.0
 11
15.1081327112831
 21
13.00688451277167
 31
0.0
  0
LINE
  5
7B6
330
1F
100
AcDbEntity
  8
OBJECT1
100
AcDbLine
 10
15.25338674615801
 20
13.01241812336726
 30
0.0
 11
15.1081327112831
 21
13.01241812336726
 31
0.0
  0
LINE
  5
7B7
330
1F
100
AcDbEntity
  8
OBJECT2
100
AcDbLine
 10
15.28178688650948
 20
13.08653874312912
 30
0.0
 11
15.2535229439411
 21
13.16098623757042
 31
0.0
  0
LINE
  5
7B8
330
1F
100
AcDbEntity
  8
OBJECT2
100
AcDbLine
 10
15.2535229439411
 20
13.16098623757042
 30
0.0
 11
15.1081327112831
 21
13.16098623757042
 31
0.0
  0
LINE
  5
7B9
330
1F
100
AcDbEntity
  8
OBJECT1
100
AcDbLine
 10
15.28175964695285
 20
13.08647042096251
 30
0.0
 11
15.25344122527127
 21
13.01247260248052
 31
0.0
  0
LINE
  5
7BA
330
1F
100
AcDbEntity
  8
OBJECT1
100
AcDbLine
 10
14.30723457006945
 20
13.01238698776202
 30
0.0
 11
14.44874011823748
 21
13.01238698776197
 31
0.0
  0
LINE
  5
7BB
330
1F
100
AcDbEntity
  8
OBJECT2
100
AcDbLine
 10
14.28030919871071
 20
13.08644318140594
 30
0.0
 11
14.28030919871071
 21
13.08644318140594
 31
0.0
  0
LINE
  5
7BC
330
1F
100
AcDbEntity
  8
OBJECT1
100
AcDbLine
 10
14.30723457006945
 20
13.01238698776202
 30
0.0
 11
14.28030919871071
 21
13.08644318140594
 31
0.0
  0
LINE
  5
7BD
330
1F
100
AcDbEntity
  8
OBJECT2
100
AcDbLine
 10
14.30819134093627
 20
13.15614876024491
 30
0.0
 11
14.28030919871071
 21
13.08644318140594
 31
0.0
  0
LINE
  5
7BE
330
1F
100
AcDbEntity
  8
OBJECT2
100
AcDbLine
 10
14.28455994473202
 20
13.07475182657586
 30
0.0
 11
14.28135257823626
 21
13.0691965048467
 31
0.0
  0
LINE
  5
7BF
330
1F
100
AcDbEntity
  8
OBJECT2
100
AcDbLine
 10
14.2713101454656
 20
13.08659500074324
 30
0.0
 11
14.28135257548555
 21
13.06920100171717
 31
0.0
  0
LINE
  5
7C0
330
1F
100
AcDbEntity
  8
OBJECT2
100
AcDbLine
 10
14.2713101454656
 20
13.54466015461602
 30
0.0
 11
14.28135257548558
 21
13.52726615558995
 31
0.0
  0
LINE
  5
7C1
330
1F
100
AcDbEntity
  8
OBJECT2
100
AcDbLine
 10
14.27134805099874
 20
13.54465565774549
 30
0.0
 11
14.26130562097876
 21
13.52726165871948
 31
0.0
  0
LINE
  5
7C2
330
1F
100
AcDbEntity
  8
OBJECT2
100
AcDbLine
 10
14.26130561822807
 20
13.52726615558995
 30
0.0
 11
14.27134805099874
 21
13.08659050387271
 31
0.0
  0
LINE
  5
7C3
330
1F
100
AcDbEntity
  8
OBJECT2
100
AcDbLine
 10
14.26130561822807
 20
13.52726615558995
 30
0.0
 11
14.27134805099874
 21
13.08659050387271
 31
0.0
  0
LINE
  5
7C4
330
1F
100
AcDbEntity
  8
OBJECT2
100
AcDbLine
 10
14.24124100633872
 20
13.52723557687053
 30
0.0
 11
14.25128343910938
 21
13.08655992515329
 31
0.0
  0
LINE
  5
7C5
330
1F
100
AcDbEntity
  8
OBJECT2
100
AcDbLine
 10
14.25124553357625
 20
13.08656442202382
 30
0.0
 11
14.2612879635962
 21
13.06917042299775
 31
0.0
  0
LINE
  5
7C6
330
1F
100
AcDbEntity
  8
OBJECT2
100
AcDbLine
 10
14.27133039636686
 20
13.08655992515329
 30
0.0
 11
14.26128796634691
 21
13.06916592612728
 31
0.0
  0
LINE
  5
7C7
330
1F
100
AcDbEntity
  8
OBJECT2
100
AcDbLine
 10
14.25128343910938
 20
13.54462507902607
 30
0.0
 11
14.24124100908943
 21
13.52723108000006
 31
0.0
  0
LINE
  5
7C8
330
1F
100
AcDbEntity
  8
OBJECT2
100
AcDbLine
 10
14.25124553357625
 20
13.5446295758966
 30
0.0
 11
14.2612879635962
 21
13.52723557687053
 31
0.0
  0
LINE
  5
7C9
330
1F
100
AcDbEntity
  8
OBJECT2
100
AcDbLine
 10
14.24124100633872
 20
13.52723557687053
 30
0.0
 11
14.25128343910938
 21
13.08655992515329
 31
0.0
  0
LINE
  5
7CA
330
1F
100
AcDbEntity
  8
OBJECT2
100
AcDbLine
 10
14.2236473075664
 20
13.41877795929966
 30
0.0
 11
14.23121882722003
 21
13.08652934643393
 31
0.0
  0
LINE
  5
7CB
330
1F
100
AcDbEntity
  8
OBJECT2
100
AcDbLine
 10
14.2311809216869
 20
13.0865338433044
 30
0.0
 11
14.24122335170685
 21
13.06913984427839
 31
0.0
  0
LINE
  5
7CC
330
1F
100
AcDbEntity
  8
OBJECT2
100
AcDbLine
 10
14.25126578447751
 20
13.08652934643393
 30
0.0
 11
14.24122335445756
 21
13.06913534740786
 31
0.0
  0
LINE
  5
7CD
330
1F
100
AcDbEntity
  8
OBJECT2
100
AcDbLine
 10
14.23121882722003
 20
13.54459450030671
 30
0.0
 11
14.2236473075664
 21
13.53148024357611
 31
0.0
  0
LINE
  5
7CE
330
1F
100
AcDbEntity
  8
OBJECT2
100
AcDbLine
 10
14.2311809216869
 20
13.54459899717719
 30
0.0
 11
14.24122335170688
 21
13.52720499815117
 31
0.0
  0
LINE
  5
7CF
330
1F
100
AcDbEntity
  8
OBJECT2
100
AcDbLine
 10
14.2236473075664
 20
13.41877795929983
 30
0.0
 11
14.23121882722003
 21
13.08652934643393
 31
0.0
  0
LINE
  5
7D0
330
1F
100
AcDbEntity
  8
OBJECT2
100
AcDbLine
 10
14.23120117258815
 20
13.08649876771451
 30
0.0
 11
14.2236473075664
 21
13.07341508970333
 31
0.0
  0
LINE
  5
7D1
330
1F
100
AcDbEntity
  8
OBJECT1
100
AcDbLine
 10
13.45260872487455
 20
13.4873155136191
 30
0.0
 11
13.45260872487455
 21
13.13178023997497
 31
0.0
  0
LINE
  5
7D2
330
1F
100
AcDbEntity
  8
OBJECT1
100
AcDbLine
 10
13.78906661514497
 20
13.74731036898529
 30
0.0
 11
13.78906661514497
 21
12.87178538460884
 31
0.0
  0
LINE
  5
7D3
330
1F
100
AcDbEntity
  8
OBJECT1
100
AcDbLine
 10
14.2236473075664
 20
13.74731036898529
 30
0.0
 11
14.2236473075664
 21
12.87178538460884
 31
0.0
  0
LINE
  5
7D4
330
1F
100
AcDbEntity
  8
OBJECT1
100
AcDbLine
 10
14.10652625923123
 20
13.74731036898529
 30
0.0
 11
14.10652625923123
 21
12.87178538460884
 31
0.0
  0
LINE
  5
7D5
330
1F
100
AcDbEntity
  8
OBJECT1
100
AcDbLine
 10
14.01406229196152
 20
13.74731036898529
 30
0.0
 11
14.01406229196152
 21
12.87178538460884
 31
0.0
  0
LINE
  5
7D6
330
1F
100
AcDbEntity
  8
OBJECT1
100
AcDbLine
 10
13.96265612914538
 20
12.74605821625678
 30
0.0
 11
13.96265612914538
 21
12.85290813709386
 31
0.0
  0
LINE
  5
7D7
330
1F
100
AcDbEntity
  8
OBJECT1
100
AcDbLine
 10
13.83451037653898
 20
12.74605821625678
 30
0.0
 11
13.83451037653898
 21
12.85446732856914
 31
0.0
  0
ELLIPSE
  5
7D8
330
1F
100
AcDbEntity
  8
OBJECT1
100
AcDbEllipse
 10
13.8985832528422
 20
12.74605821625678
 30
0.0
 11
-0.0640728763032055
 21
0.0
 31
0.0
210
0.0
220
0.0
230
-1.0
 40
0.5676074033185849
 41
3.141592653589793
 42
6.283185307179586
  0
LINE
  5
7D9
330
1F
100
AcDbEntity
  8
OBJECT1
100
AcDbLine
 10
14.10652625923123
 20
12.87178538460884
 30
0.0
 11
14.2236473075664
 21
12.87178538460884
 31
0.0
  0
ARC
  5
7DA
330
1F
100
AcDbEntity
  8
OBJECT1
100
AcDbCircle
 10
13.90156445355325
 20
13.09870459884669
 30
0.0
 40
0.2532747390421107
100
AcDbArc
 50
243.6295507910973
 51
296.3704492089026
  0
LINE
  5
7DB
330
1F
100
AcDbEntity
  8
OBJECT1
100
AcDbLine
 10
14.01406229196152
 20
12.91894636176792
 30
0.0
 11
14.10652625923123
 21
12.91894636176792
 31
0.0
  0
ELLIPSE
  5
7DC
330
1F
100
AcDbEntity
  8
OBJECT1
100
AcDbEllipse
 10
13.8985832528422
 20
13.69877302250009
 30
0.0
 11
0.0640728763032055
 21
0.0
 31
0.0
210
0.0
220
0.0
230
1.0
 40
0.5676074033185849
 41
3.141592653589793
 42
6.283185307179586
  0
LINE
  5
7DD
330
1F
100
AcDbEntity
  8
OBJECT1
100
AcDbLine
 10
14.01406229196152
 20
13.70014939182615
 30
0.0
 11
14.10652625923123
 21
13.70014939182615
 31
0.0
  0
LINE
  5
7DE
330
1F
100
AcDbEntity
  8
OBJECT1
100
AcDbLine
 10
14.10652625923123
 20
13.74731036898529
 30
0.0
 11
14.2236473075664
 21
13.74731036898529
 31
0.0
  0
ARC
  5
7DF
330
1F
100
AcDbEntity
  8
OBJECT1
100
AcDbCircle
 10
13.90156445355325
 20
13.52039115474744
 30
0.0
 40
0.2532747390421107
100
AcDbArc
 50
105.3520020741015
 51
116.3704492089026
  0
ARC
  5
7E0
330
1F
100
AcDbEntity
  8
OBJECT1
100
AcDbCircle
 10
13.90156445355325
 20
13.52039115474744
 30
0.0
 40
0.2532747390421107
100
AcDbArc
 50
63.62955079109736
 51
76.04220227612033
  0
LINE
  5
7E1
330
1F
100
AcDbEntity
  8
OBJECT1
100
AcDbLine
 10
14.2236473075664
 20
13.52842912289119
 30
0.0
 11
14.10652625923123
 21
13.52842912289119
 31
0.0
  0
LINE
  5
7E2
330
1F
100
AcDbEntity
  8
OBJECT1
100
AcDbLine
 10
14.2236473075664
 20
13.09066663070294
 30
0.0
 11
14.10652625923123
 21
13.09066663070294
 31
0.0
  0
LINE
  5
7E3
330
1F
100
AcDbEntity
  8
OBJECT2
100
AcDbLine
 10
14.75145279459889
 20
13.74031626078729
 30
0.0
 11
14.88764310932239
 21
13.74031626078729
 31
0.0
  0
LINE
  5
7E4
330
1F
100
AcDbEntity
  8
OBJECT2
100
AcDbLine
 10
14.75144075234732
 20
13.73045997400154
 30
0.0
 11
14.88765515157396
 21
13.73045997400154
 31
0.0
  0
LINE
  5
7E5
330
1F
100
AcDbEntity
  8
OBJECT2
100
AcDbLine
 10
14.75256266707271
 20
13.7678507897879
 30
0.0
 11
14.89344083339992
 21
13.7678507897879
 31
0.0
  0
LINE
  5
7E6
330
1F
100
AcDbEntity
  8
OBJECT2
100
AcDbLine
 10
14.88593306954877
 20
13.77762678674977
 30
0.0
 11
14.75306523778297
 21
13.77764120031613
 31
0.0
  0
LINE
  5
7E7
330
1F
100
AcDbEntity
  8
OBJECT2
100
AcDbLine
 10
14.88007897265794
 20
13.64792284914645
 30
0.0
 11
14.88007897265791
 21
13.73045997400154
 31
0.0
  0
LINE
  5
7E8
330
1F
100
AcDbEntity
  8
OBJECT2
100
AcDbLine
 10
14.88007897265794
 20
13.64792284914645
 30
0.0
 11
14.93510372256133
 21
13.64792284914645
 31
0.0
  0
LINE
  5
7E9
330
1F
100
AcDbEntity
  8
OBJECT2
100
AcDbLine
 10
15.28145956527993
 20
13.26282556221818
 30
0.0
 11
15.2535229439411
 21
13.16098623757042
 31
0.0
  0
LINE
  5
7EA
330
1F
100
AcDbEntity
  8
OBJECT2
100
AcDbLine
 10
15.1081327112831
 20
13.6121567617092
 30
0.0
 11
15.1081327112831
 21
13.00688451277167
 31
0.0
  0
LINE
  5
7EB
330
1F
100
AcDbEntity
  8
OBJECT2
100
AcDbLine
 10
15.06411291136035
 20
13.6121567617092
 30
0.0
 11
15.06411291136035
 21
13.00688451277167
 31
0.0
  0
LINE
  5
7EC
330
1F
100
AcDbEntity
  8
OBJECT1
100
AcDbLine
 10
12.57239301679573
 20
11.4274059513709
 30
0.0
 11
12.57239301679573
 21
12.73348871901996
 31
0.0
  0
LINE
  5
7ED
330
1F
100
AcDbEntity
  8
OBJECT1
100
AcDbLine
 10
12.69188170985685
 20
11.1645530000369
 30
0.0
 11
12.57239301679573
 21
11.4274059513709
 31
0.0
  0
ARC
  5
7EE
330
1F
100
AcDbEntity
  8
OBJECT1
100
AcDbCircle
 10
12.40880742602263
 20
10.93252655740391
 30
0.0
 40
0.0562701
100
AcDbArc
 50
0.0
 51
90.0
  0
ARC
  5
7EF
330
1F
100
AcDbEntity
  8
OBJECT1
100
AcDbCircle
 10
12.25243301762046
 20
10.93252655740391
 30
0.0
 40
0.0562701
100
AcDbArc
 50
90.0
 51
180.0
  0
LINE
  5
7F0
330
1F
100
AcDbEntity
  8
OBJECT1
100
AcDbLine
 10
12.40880742602263
 20
10.98879665740392
 30
0.0
 11
12.25243301762046
 21
10.98879665740392
 31
0.0
  0
LINE
  5
7F1
330
1F
100
AcDbEntity
  8
OBJECT1
100
AcDbLine
 10
12.89075596556026
 20
13.81378171014964
 30
0.0
 11
12.89075596556026
 21
12.80531404344449
 31
0.0
  0
LINE
  5
7F2
330
1F
100
AcDbEntity
  8
OBJECT1
100
AcDbLine
 10
12.94164005588214
 20
13.81378171014964
 30
0.0
 11
12.94164005588214
 21
12.80531404344449
 31
0.0
  0
LINE
  5
7F3
330
1F
100
AcDbEntity
  8
OBJECT1
100
AcDbLine
 10
13.24376439230585
 20
13.69518029210419
 30
0.0
 11
13.24376439230585
 21
12.92391546148988
 31
0.0
  0
ARC
  5
7F4
330
1F
100
AcDbEntity
  8
OBJECT1
100
AcDbCircle
 10
13.14765858118414
 20
13.29550497592853
 30
0.0
 40
0.8042342585345721
100
AcDbArc
 50
204.3271543460694
 51
224.3325356607883
  0
ARC
  5
7F5
330
1F
100
AcDbEntity
  8
OBJECT1
100
AcDbCircle
 10
12.92070115803932
 20
13.73379493084647
 30
0.0
 40
0.9287169621115074
100
AcDbArc
 50
271.2919029010862
 51
286.4193733527751
  0
LINE
  5
7F6
330
1F
100
AcDbEntity
  8
OBJECT1
100
AcDbLine
 10
12.57239301679573
 20
12.73348871901996
 30
0.0
 11
12.80900891369904
 21
12.73348871901996
 31
0.0
  0
LINE
  5
7F7
330
1F
100
AcDbEntity
  8
OBJECT1
100
AcDbLine
 10
12.89075596556026
 20
12.95376479676454
 30
0.0
 11
12.94164005588214
 21
12.95376479676454
 31
0.0
  0
LINE
  5
7F8
330
1F
100
AcDbEntity
  8
OBJECT1
100
AcDbLine
 10
12.80900891369904
 20
12.80531404344449
 30
0.0
 11
12.89075596556026
 21
12.80531404344449
 31
0.0
  0
ARC
  5
7F9
330
1F
100
AcDbEntity
  8
OBJECT1
100
AcDbCircle
 10
13.15935924230586
 20
12.92391546148988
 30
0.0
 40
0.08440515
100
AcDbArc
 50
286.4193733527751
 51
0.0
  0
ARC
  5
7FA
330
1F
100
AcDbEntity
  8
OBJECT1
100
AcDbCircle
 10
13.15935924230586
 20
13.69518029210419
 30
0.0
 40
0.08440515
100
AcDbArc
 50
0.0
 51
73.58062664722488
  0
LINE
  5
7FB
330
1F
100
AcDbEntity
  8
OBJECT1
100
AcDbLine
 10
12.89075596556026
 20
13.66533095682953
 30
0.0
 11
12.94164005588214
 21
13.66533095682953
 31
0.0
  0
LINE
  5
7FC
330
1F
100
AcDbEntity
  8
OBJECT1
100
AcDbLine
 10
12.80900891369904
 20
13.81378171014964
 30
0.0
 11
12.89075596556026
 21
13.81378171014964
 31
0.0
  0
LINE
  5
7FD
330
1F
100
AcDbEntity
  8
OBJECT1
100
AcDbLine
 10
13.24376439230585
 20
13.13178023997497
 30
0.0
 11
13.45260872487455
 21
13.13178023997497
 31
0.0
  0
LINE
  5
7FE
330
1F
100
AcDbEntity
  8
OBJECT1
100
AcDbLine
 10
13.24376439230585
 20
13.4873155136191
 30
0.0
 11
13.45260872487455
 21
13.4873155136191
 31
0.0
  0
LINE
  5
7FF
330
1F
100
AcDbEntity
  8
OBJECT1
100
AcDbLine
 10
13.24376439230585
 20
13.36520151750014
 30
0.0
 11
13.45260872487455
 21
13.36520151750014
 31
0.0
  0
ARC
  5
800
330
1F
100
AcDbEntity
  8
OBJECT2
100
AcDbCircle
 10
13.87952742541554
 20
8.913097100183904
 30
0.0
 40
0.6666084158439394
100
AcDbArc
 50
86.43387373698107
 51
144.9828874771039
  0
ARC
  5
801
330
1F
100
AcDbEntity
  8
OBJECT2
100
AcDbCircle
 10
13.90732107616921
 20
8.803492366421977
 30
0.0
 40
0.589156993813932
100
AcDbArc
 50
73.10037584237199
 51
135.9295721347789
  0
ARC
  5
802
330
1F
100
AcDbEntity
  8
OBJECT2
100
AcDbCircle
 10
13.99781451778986
 20
9.042442087626511
 30
0.0
 40
0.5414504386844201
100
AcDbArc
 50
98.15694228845503
 51
161.6083151644287
  0
ARC
  5
803
330
1F
100
AcDbEntity
  8
OBJECT2
100
AcDbCircle
 10
15.4585651372063
 20
9.412719266100822
 30
0.0
 40
0.7361837901385922
100
AcDbArc
 50
145.7903072266783
 51
188.2252446902172
  0
ARC
  5
804
330
1F
100
AcDbEntity
  8
OBJECT2
100
AcDbCircle
 10
16.76655334405566
 20
9.664102846988242
 30
0.0
 40
1.923678637289783
100
AcDbArc
 50
175.1537653321341
 51
192.930838406161
  0
ARC
  5
805
330
1F
100
AcDbEntity
  8
OBJECT2
100
AcDbCircle
 10
14.22568570774191
 20
8.450305377539422
 30
0.0
 40
0.9286261655871916
100
AcDbArc
 50
99.11433327758565
 51
127.4685380473004
  0
ARC
  5
806
330
1F
100
AcDbEntity
  8
OBJECT2
100
AcDbCircle
 10
14.15105634878651
 20
9.201142487794328
 30
0.0
 40
0.5885684599475032
100
AcDbArc
 50
10.4006686342595
 51
65.66509217082703
  0
ARC
  5
807
330
1F
100
AcDbEntity
  8
OBJECT2
100
AcDbCircle
 10
13.50462525782259
 20
9.164173404002923
 30
0.0
 40
1.057763338458013
100
AcDbArc
 50
1.255199542542658
 51
32.81582537463479
  0
ARC
  5
808
330
1F
100
AcDbEntity
  8
OBJECT2
100
AcDbCircle
 10
15.51797832821935
 20
9.287117560141581
 30
0.0
 40
0.3240138731093084
100
AcDbArc
 50
111.8392095683318
 51
186.4888148896733
  0
ARC
  5
809
330
1F
100
AcDbEntity
  8
OBJECT2
100
AcDbCircle
 10
15.41846722755306
 20
9.23355118770749
 30
0.0
 40
0.3549493743772776
100
AcDbArc
 50
93.39552386286349
 51
179.0792305562208
  0
ARC
  5
80A
330
1F
100
AcDbEntity
  8
OBJECT2
100
AcDbCircle
 10
16.36839627779218
 20
9.397062161939658
 30
0.0
 40
1.31434057474648
100
AcDbArc
 50
165.9022548620292
 51
186.8958855199988
  0
ARC
  5
80B
330
1F
100
AcDbEntity
  8
OBJECT2
100
AcDbCircle
 10
15.45822804009881
 20
9.280950667708026
 30
0.0
 40
0.5685430849320693
100
AcDbArc
 50
129.8861757973134
 51
184.7741140652598
  0
ARC
  5
80C
330
1F
100
AcDbEntity
  8
OBJECT2
100
AcDbCircle
 10
14.23299797033692
 20
9.136444665125566
 30
0.0
 40
0.3330492717890609
100
AcDbArc
 50
8.790925381628355
 51
93.54521999894576
  0
ARC
  5
80D
330
1F
100
AcDbEntity
  8
OBJECT2
100
AcDbCircle
 10
13.22121206211616
 20
8.420654196187257
 30
0.0
 40
1.442632520985176
100
AcDbArc
 50
32.10362366777194
 51
46.60127961222229
  0
ARC
  5
80E
330
1F
100
AcDbEntity
  8
OBJECT2
100
AcDbCircle
 10
15.50753083740832
 20
9.12101000209418
 30
0.0
 40
0.3373342428875908
100
AcDbArc
 50
69.05667280768881
 51
157.4266699698963
  0
ARC
  5
80F
330
1F
100
AcDbEntity
  8
OBJECT2
100
AcDbCircle
 10
15.68763483246354
 20
8.945410737862886
 30
0.0
 40
0.4942450024685793
100
AcDbArc
 50
96.91736956408062
 51
144.5674579136835
  0
ARC
  5
810
330
1F
100
AcDbEntity
  8
OBJECT2
100
AcDbCircle
 10
14.33065595070169
 20
9.263008113470334
 30
0.0
 40
0.9976008471305872
100
AcDbArc
 50
146.9190872071193
 51
178.1271632845414
  0
ARC
  5
811
330
1F
100
AcDbEntity
  8
OBJECT2
100
AcDbCircle
 10
13.83448724713494
 20
7.997907508039332
 30
0.0
 40
1.278447527545438
100
AcDbArc
 50
68.49349677819962
 51
82.02774531870522
  0
ARC
  5
812
330
1F
100
AcDbEntity
  8
OBJECT2
100
AcDbCircle
 10
14.16383729707453
 20
8.867210987601822
 30
0.0
 40
0.4249192756944369
100
AcDbArc
 50
48.88559448429574
 51
110.965365399264
  0
ARC
  5
813
330
1F
100
AcDbEntity
  8
OBJECT2
100
AcDbCircle
 10
15.618766969032
 20
8.605888317021168
 30
0.0
 40
0.6492430002695575
100
AcDbArc
 50
89.53128755290752
 51
116.4155861104338
  0
ARC
  5
814
330
1F
100
AcDbEntity
  8
OBJECT2
100
AcDbCircle
 10
15.4677168378769
 20
9.050028962727054
 30
0.0
 40
0.2578893299413595
100
AcDbArc
 50
52.67672809740874
 51
135.1374298892589
  0
LINE
  5
815
330
1F
100
AcDbEntity
  8
OBJECT1
100
AcDbLine
 10
13.08225889618205
 20
9.668820705123522
 30
0.0
 11
13.08225889618205
 21
9.532681171656093
 31
0.0
  0
LINE
  5
816
330
1F
100
AcDbEntity
  8
OBJECT1
100
AcDbLine
 10
12.69188170985685
 20
9.305601416812407
 30
0.0
 11
12.69188170985685
 21
9.532681171656093
 31
0.0
  0
LINE
  5
817
330
1F
100
AcDbEntity
  8
OBJECT1
100
AcDbLine
 10
12.40880742602263
 20
10.09310902405408
 30
0.0
 11
12.25243301762046
 21
10.09310902405408
 31
0.0
  0
ARC
  5
818
330
1F
100
AcDbEntity
  8
OBJECT1
100
AcDbCircle
 10
12.25243301762046
 20
10.14937912405406
 30
0.0
 40
0.0562701
100
AcDbArc
 50
180.0
 51
270.0
  0
ARC
  5
819
330
1F
100
AcDbEntity
  8
OBJECT1
100
AcDbCircle
 10
12.40880742602263
 20
10.14937912405406
 30
0.0
 40
0.0562701
100
AcDbArc
 50
270.0
 51
0.0
  0
LINE
  5
81A
330
1F
100
AcDbEntity
  8
OBJECT1
100
AcDbLine
 10
13.08225889618205
 20
9.927016334530151
 30
0.0
 11
13.08225889618205
 21
9.800265741725183
 31
0.0
  0
ARC
  5
81B
330
1F
100
AcDbEntity
  8
OBJECT1
100
AcDbCircle
 10
12.96539423438312
 20
9.734543223424367
 30
0.0
 40
0.1340775842159346
100
AcDbArc
 50
330.6474064067206
 51
29.35259359327941
  0
ARC
  5
81C
330
1F
100
AcDbEntity
  8
OBJECT2
100
AcDbCircle
 10
13.74705855362631
 20
9.240569231604837
 30
0.0
 40
0.6205534294226436
100
AcDbArc
 50
113.9889970218556
 51
184.9203048995624
  0
LINE
  5
81D
330
1F
100
AcDbEntity
  8
OBJECT1
100
AcDbLine
 10
12.19616291762045
 20
10.93252655740391
 30
0.0
 11
12.19616291762045
 21
10.14937912405406
 31
0.0
  0
LINE
  5
81E
330
1F
100
AcDbEntity
  8
OBJECT1
100
AcDbLine
 10
12.46507752602264
 20
10.93252655740391
 30
0.0
 11
12.46507752602264
 21
10.14937912405406
 31
0.0
  0
LINE
  5
81F
330
1F
100
AcDbEntity
  8
OBJECT1
100
AcDbLine
 10
12.69188170985685
 20
9.927016334530151
 30
0.0
 11
12.69188170985685
 21
11.1645530000369
 31
0.0
  0
ARC
  5
820
330
1F
100
AcDbEntity
  8
OBJECT2
100
AcDbCircle
 10
16.41804288135796
 20
12.30959383767529
 30
0.0
 40
0.136549549879966
100
AcDbArc
 50
24.13736000000042
 51
84.62607199999881
  0
LINE
  5
821
330
1F
100
AcDbEntity
  8
OBJECT1
100
AcDbLine
 10
16.53271373295348
 20
11.7614533676942
 30
0.0
 11
16.26477742489652
 21
11.76147466605161
 31
0.0
  0
LINE
  5
822
330
1F
100
AcDbEntity
  8
OBJECT2
100
AcDbLine
 10
16.68002109775776
 20
12.55165709927732
 30
0.0
 11
16.26221146813941
 21
12.96949892408699
 31
0.0
  0
LINE
  5
823
330
1F
100
AcDbEntity
  8
OBJECT2
100
AcDbLine
 10
16.73688733380828
 20
13.57930655562702
 30
0.0
 11
16.27004876835494
 21
13.1124703395715
 31
0.0
  0
LINE
  5
824
330
1F
100
AcDbEntity
  8
OBJECT2
100
AcDbLine
 10
16.29192614389808
 20
12.15246718713999
 30
0.0
 11
16.29192540093214
 21
12.56826684619173
 31
0.0
  0
LINE
  5
825
330
1F
100
AcDbEntity
  8
OBJECT2
100
AcDbLine
 10
16.41101615700057
 20
12.22149219163557
 30
0.0
 11
16.41101590934519
 21
12.48906617996138
 31
0.0
  0
LINE
  5
826
330
1F
100
AcDbEntity
  8
OBJECT1
100
AcDbLine
 10
16.26477742489652
 20
11.76147466605161
 30
0.0
 11
16.27003564262304
 21
11.76147466605161
 31
0.0
  0
ARC
  5
827
330
1F
100
AcDbEntity
  8
OBJECT2
100
AcDbCircle
 10
16.2701064720442
 20
12.56826337901728
 30
0.0
 40
0.0218183959539095
100
AcDbArc
 50
359.9243320000029
 51
69.60372899999796
  0
ARC
  5
828
330
1F
100
AcDbEntity
  8
OBJECT2
100
AcDbCircle
 10
16.31385726064542
 20
12.53288730267317
 30
0.0
 40
0.0219315226698
100
AcDbArc
 50
180.1098329999966
 51
269.8895570000004
  0
ARC
  5
829
330
1F
100
AcDbEntity
  8
OBJECT2
100
AcDbCircle
 10
16.43294628312657
 20
12.46737256466471
 30
0.0
 40
0.0219315226698
100
AcDbArc
 50
180.0394900000009
 51
264.4665989999988
  0
ARC
  5
82A
330
1F
100
AcDbEntity
  8
OBJECT2
100
AcDbCircle
 10
16.38902907015119
 20
12.48898940681263
 30
0.0
 40
0.0219879109089899
100
AcDbArc
 50
0.2000270000043294
 51
89.74889800000187
  0
LINE
  5
82B
330
1F
100
AcDbEntity
  8
OBJECT2
100
AcDbLine
 10
16.38912540807015
 20
12.51097698897254
 30
0.0
 11
16.31381491158592
 21
12.51095569061519
 31
0.0
  0
LINE
  5
82C
330
1F
100
AcDbEntity
  8
OBJECT2
100
AcDbLine
 10
16.3139867843771
 20
13.02777222057668
 30
0.0
 11
16.28718007737055
 21
13.00096551357015
 31
0.0
  0
LINE
  5
82D
330
1F
100
AcDbEntity
  8
OBJECT1
100
AcDbLine
 10
16.24288667596613
 20
11.94032390755589
 30
0.0
 11
16.24288692362142
 21
11.783364672016
 31
0.0
  0
LINE
  5
82E
330
1F
100
AcDbEntity
  8
OBJECT2
100
AcDbLine
 10
16.24288766658736
 20
11.9402060236242
 30
0.0
 11
16.24288741893198
 21
12.11844578538907
 31
0.0
  0
ARC
  5
82F
330
1F
100
AcDbEntity
  8
OBJECT2
100
AcDbCircle
 10
16.25796591301096
 20
12.61971822927253
 30
0.0
 40
0.0220691660114252
100
AcDbArc
 50
179.9368289999995
 51
249.3921360000019
  0
LINE
  5
830
330
1F
100
AcDbEntity
  8
OBJECT2
100
AcDbLine
 10
16.23589685225113
 20
12.52012661472181
 30
0.0
 11
16.23589759521706
 21
12.87712943394026
 31
0.0
  0
ARC
  5
831
330
1F
100
AcDbEntity
  8
OBJECT1
100
AcDbCircle
 10
16.26469247912217
 20
11.78328096451835
 30
0.0
 40
0.0218057874035316
100
AcDbArc
 50
179.7799990000004
 51
270.2230990000005
  0
ARC
  5
832
330
1F
100
AcDbEntity
  8
OBJECT2
100
AcDbCircle
 10
16.41060876400132
 20
12.87731492777393
 30
0.0
 40
0.1747114290236988
100
AcDbArc
 50
134.9485170000051
 51
180.0608829999951
  0
LINE
  5
833
330
1F
100
AcDbEntity
  8
OBJECT2
100
AcDbLine
 10
16.27771023329424
 20
12.58871351695873
 30
0.0
 11
16.2501977086294
 21
12.59906055617395
 31
0.0
  0
ARC
  5
834
330
1F
100
AcDbEntity
  8
OBJECT1
100
AcDbCircle
 10
16.41844903608066
 20
12.30965426557301
 30
0.0
 40
0.1361555326806571
100
AcDbArc
 50
359.9669039999992
 51
24.18408999999729
  0
ARC
  5
835
330
1F
100
AcDbEntity
  8
OBJECT1
100
AcDbCircle
 10
16.5617768275687
 20
12.37403449456653
 30
0.0
 40
0.0209680192784232
100
AcDbArc
 50
134.914206
 51
204.2196039999963
  0
LINE
  5
836
330
1F
100
AcDbEntity
  8
OBJECT1
100
AcDbLine
 10
16.53271373295348
 20
11.7614533676942
 30
0.0
 11
16.52745551522693
 21
11.7614533676942
 31
0.0
  0
ARC
  5
837
330
1F
100
AcDbEntity
  8
OBJECT1
100
AcDbCircle
 10
16.53272636337476
 20
11.78333099089266
 30
0.0
 40
0.0218775860931835
100
AcDbArc
 50
269.9665990000019
 51
0.0878299999989286
  0
LINE
  5
838
330
1F
100
AcDbEntity
  8
OBJECT1
100
AcDbLine
 10
16.55460423422857
 20
12.30957526352639
 30
0.0
 11
16.55460398657328
 21
11.78336442436076
 31
0.0
  0
ARC
  5
839
330
1F
100
AcDbEntity
  8
OBJECT1
100
AcDbCircle
 10
17.08283222596494
 20
12.43936200515392
 30
0.0
 40
0.0218905448810718
100
AcDbArc
 50
45.00524099999625
 51
134.9969400000003
  0
LINE
  5
83A
330
1F
100
AcDbEntity
  8
OBJECT2
100
AcDbLine
 10
16.92476498052928
 20
12.9315445082199
 30
0.0
 11
16.82839759057273
 21
12.83522070559948
 31
0.0
  0
LINE
  5
83B
330
1F
100
AcDbEntity
  8
OBJECT2
100
AcDbLine
 10
16.82839734291744
 20
12.87900096518356
 30
0.0
 11
16.82839759057273
 21
12.83522070559948
 31
0.0
  0
LINE
  5
83C
330
1F
100
AcDbEntity
  8
OBJECT2
100
AcDbLine
 10
16.92476498052928
 20
12.9315445082199
 30
0.0
 11
16.82839759057273
 21
13.02789059981901
 31
0.0
  0
LINE
  5
83D
330
1F
100
AcDbEntity
  8
OBJECT2
100
AcDbLine
 10
16.82839759057273
 20
12.98411009257952
 30
0.0
 11
16.82839759057273
 21
13.02789059981901
 31
0.0
  0
ARC
  5
83E
330
1F
100
AcDbEntity
  8
OBJECT1
100
AcDbCircle
 10
16.77155351292731
 20
13.66000628291956
 30
0.0
 40
0.0878304614573279
100
AcDbArc
 50
225.0679930000054
 51
269.9183350000013
  0
ARC
  5
83F
330
1F
100
AcDbEntity
  8
OBJECT1
100
AcDbCircle
 10
16.69486729114768
 20
12.50710811758389
 30
0.0
 40
0.0210026927919624
100
AcDbArc
 50
134.9790429999996
 51
225.0218809999992
  0
LINE
  5
840
330
1F
100
AcDbEntity
  8
OBJECT2
100
AcDbLine
 10
16.68002159306834
 20
12.52196471249723
 30
0.0
 11
16.68002159306834
 21
12.52196471249723
 31
0.0
  0
ARC
  5
841
330
1F
100
AcDbEntity
  8
OBJECT2
100
AcDbCircle
 10
16.66519991755498
 20
12.53681115354263
 30
0.0
 40
0.0209785264037381
100
AcDbArc
 50
314.952559999997
 51
45.04744000000294
  0
ARC
  5
842
330
1F
100
AcDbEntity
  8
OBJECT1
100
AcDbCircle
 10
17.22535736656522
 20
12.35875663795607
 30
0.0
 40
0.0218929965436453
100
AcDbArc
 50
225.0122379999954
 51
314.9916990000021
  0
LINE
  5
843
330
1F
100
AcDbEntity
  8
OBJECT1
100
AcDbLine
 10
16.85802385338263
 20
12.31485651319761
 30
0.0
 11
16.87721788354775
 21
12.29566198772189
 31
0.0
  0
ARC
  5
844
330
1F
100
AcDbEntity
  8
OBJECT1
100
AcDbCircle
 10
16.89269634096638
 20
12.3111424263831
 30
0.0
 40
0.0218912453560928
100
AcDbArc
 50
225.0035100000003
 51
314.9960630000033
  0
LINE
  5
845
330
1F
100
AcDbEntity
  8
OBJECT2
100
AcDbLine
 10
16.85802385338263
 20
12.31485651319761
 30
0.0
 11
16.85802385338263
 21
12.31485651319761
 31
0.0
  0
LINE
  5
846
330
1F
100
AcDbEntity
  8
OBJECT2
100
AcDbLine
 10
16.86514295317403
 20
12.32197462236766
 30
0.0
 11
16.85028734888189
 21
12.32197387940172
 31
0.0
  0
LINE
  5
847
330
1F
100
AcDbEntity
  8
OBJECT1
100
AcDbLine
 10
16.85028734888189
 20
12.32197387940172
 30
0.0
 11
16.68002159306834
 21
12.49225102735979
 31
0.0
  0
LINE
  5
848
330
1F
100
AcDbEntity
  8
OBJECT1
100
AcDbLine
 10
16.90817479838506
 20
12.29566198772189
 30
0.0
 11
17.06735426385697
 21
12.45484145319389
 31
0.0
  0
LINE
  5
849
330
1F
100
AcDbEntity
  8
OBJECT1
100
AcDbLine
 10
17.20987989976779
 20
12.34327273212042
 30
0.0
 11
17.09830994041775
 21
12.45484219615983
 31
0.0
  0
LINE
  5
84A
330
1F
100
AcDbEntity
  8
OBJECT2
100
AcDbLine
 10
16.74364833075469
 20
13.8112755136847
 30
0.0
 11
16.74364833075469
 21
13.8112755136847
 31
0.0
  0
LINE
  5
84B
330
1F
100
AcDbEntity
  8
OBJECT1
100
AcDbLine
 10
17.44712775135306
 20
13.56575188814221
 30
0.0
 11
17.49033097404463
 21
13.52255956228467
 31
0.0
  0
LINE
  5
84C
330
1F
100
AcDbEntity
  8
OBJECT1
100
AcDbLine
 10
17.51424977237979
 20
13.51614702311766
 30
0.0
 11
17.51425076300111
 21
13.48447686096241
 31
0.0
  0
LINE
  5
84D
330
1F
100
AcDbEntity
  8
OBJECT1
100
AcDbLine
 10
17.51424977237979
 20
13.51614702311766
 30
0.0
 11
17.50580769787606
 21
13.51613563097291
 31
0.0
  0
ARC
  5
84E
330
1F
100
AcDbEntity
  8
OBJECT1
100
AcDbCircle
 10
17.50579308621229
 20
13.53795579813751
 30
0.0
 40
0.021820147141462
100
AcDbArc
 50
224.8771969999947
 51
270.0378269999981
  0
LINE
  5
84F
330
1F
100
AcDbEntity
  8
OBJECT2
100
AcDbLine
 10
17.45193746529742
 20
13.30949673850224
 30
0.0
 11
17.45193746529742
 21
13.30949673850224
 31
0.0
  0
LINE
  5
850
330
1F
100
AcDbEntity
  8
OBJECT1
100
AcDbLine
 10
17.51425051534582
 20
13.10285858899752
 30
0.0
 11
17.51425125831167
 21
13.13457010959083
 31
0.0
  0
LINE
  5
851
330
1F
100
AcDbEntity
  8
OBJECT1
100
AcDbLine
 10
17.51425051534582
 20
13.10285858899752
 30
0.0
 11
17.50580769787606
 21
13.10285784603158
 31
0.0
  0
ARC
  5
852
330
1F
100
AcDbEntity
  8
OBJECT1
100
AcDbCircle
 10
17.50585277114405
 20
13.08086605373111
 30
0.0
 40
0.0219917635216054
100
AcDbArc
 50
90.11753100000094
 51
134.8955729999986
  0
LINE
  5
853
330
1F
100
AcDbEntity
  8
OBJECT1
100
AcDbLine
 10
17.44712824666365
 20
13.05320988898151
 30
0.0
 11
17.49033072638928
 21
13.09644456389853
 31
0.0
  0
LINE
  5
854
330
1F
100
AcDbEntity
  8
OBJECT2
100
AcDbLine
 10
17.45193622702089
 20
13.42857709304721
 30
0.0
 11
17.45193721764221
 21
13.19042876672315
 31
0.0
  0
LINE
  5
855
330
1F
100
AcDbEntity
  8
OBJECT2
100
AcDbLine
 10
17.51425125831167
 20
13.13457010959083
 30
0.0
 11
17.51425076300111
 21
13.48446546881783
 31
0.0
  0
LINE
  5
856
330
1F
100
AcDbEntity
  8
OBJECT1
100
AcDbLine
 10
17.46230431693826
 20
12.91913499551051
 30
0.0
 11
17.48149686117133
 21
12.89994294658808
 31
0.0
  0
ARC
  5
857
330
1F
100
AcDbEntity
  8
OBJECT1
100
AcDbCircle
 10
17.46600750691871
 20
12.88446498448004
 30
0.0
 40
0.0218971993937713
100
AcDbArc
 50
315.0157320000051
 51
44.97902699999769
  0
LINE
  5
858
330
1F
100
AcDbEntity
  8
OBJECT2
100
AcDbLine
 10
17.45518620776809
 20
12.91203868000857
 30
0.0
 11
17.45518695073411
 21
12.92563371872856
 31
0.0
  0
LINE
  5
859
330
1F
100
AcDbEntity
  8
OBJECT2
100
AcDbLine
 10
17.43092465447185
 20
13.44960055305151
 30
0.0
 11
17.29783245730561
 21
13.44961120223027
 31
0.0
  0
LINE
  5
85A
330
1F
100
AcDbEntity
  8
OBJECT1
100
AcDbLine
 10
17.43163022447492
 20
13.04683994652921
 30
0.0
 11
17.38684374133083
 21
13.04683004031639
 31
0.0
  0
LINE
  5
85B
330
1F
100
AcDbEntity
  8
OBJECT2
100
AcDbLine
 10
17.43092366385053
 20
13.16941521293162
 30
0.0
 11
17.29783097137377
 21
13.16940456375297
 31
0.0
  0
ARC
  5
85C
330
1F
100
AcDbEntity
  8
OBJECT2
100
AcDbCircle
 10
17.29781883626307
 20
13.42861126948125
 30
0.0
 40
0.0209998908918784
100
AcDbArc
 50
89.96262400000231
 51
180.0367429999996
  0
ARC
  5
85D
330
1F
100
AcDbEntity
  8
OBJECT2
100
AcDbCircle
 10
17.29783716275667
 20
13.19042183237425
 30
0.0
 40
0.0210181032424243
100
AcDbArc
 50
179.953002999996
 51
269.982619999997
  0
ARC
  5
85E
330
1F
100
AcDbEntity
  8
OBJECT1
100
AcDbCircle
 10
17.38686107720309
 20
13.02493532890096
 30
0.0
 40
0.0218947477311978
100
AcDbArc
 50
90.04512000000053
 51
224.9615480000004
  0
LINE
  5
85F
330
1F
100
AcDbEntity
  8
OBJECT2
100
AcDbLine
 10
17.27681915116937
 20
13.19043916824662
 30
0.0
 11
17.27681915116937
 21
13.42859789609403
 31
0.0
  0
LINE
  5
860
330
1F
100
AcDbEntity
  8
OBJECT2
100
AcDbLine
 10
17.44000889921704
 20
13.55053123991044
 30
0.0
 11
17.44000964218301
 21
13.447526192102
 31
0.0
  0
LINE
  5
861
330
1F
100
AcDbEntity
  8
OBJECT2
100
AcDbLine
 10
17.4400098898383
 20
13.06848353545152
 30
0.0
 11
17.44000939452772
 21
13.17148883091513
 31
0.0
  0
LINE
  5
862
330
1F
100
AcDbEntity
  8
OBJECT1
100
AcDbLine
 10
17.43388537380698
 20
12.5672782061595
 30
0.0
 11
17.32231566211209
 21
12.67884791785431
 31
0.0
  0
ARC
  5
863
330
1F
100
AcDbEntity
  8
OBJECT1
100
AcDbCircle
 10
17.33779758670522
 20
12.69432637527293
 30
0.0
 40
0.0218926463061348
100
AcDbArc
 50
135.0087279999979
 51
224.9930109999981
  0
ARC
  5
864
330
1F
100
AcDbEntity
  8
OBJECT1
100
AcDbCircle
 10
17.41840567811169
 20
12.55179950108552
 30
0.0
 40
0.0218908951185823
100
AcDbArc
 50
315.0
 51
44.99825299999881
  0
LINE
  5
865
330
1F
100
AcDbEntity
  8
OBJECT1
100
AcDbLine
 10
17.45518695073411
 20
12.92563371872856
 30
0.0
 11
17.37136800812072
 21
13.0094630628653
 31
0.0
  0
LINE
  5
866
330
1F
100
AcDbEntity
  8
OBJECT1
100
AcDbLine
 10
17.48149611820531
 20
12.86898528878478
 30
0.0
 11
17.3223151668015
 21
12.70980433738091
 31
0.0
  0
ARC
  5
867
330
1F
100
AcDbEntity
  8
OBJECT2
100
AcDbCircle
 10
17.43088329603367
 20
13.4285481173749
 30
0.0
 40
0.021052426518453
100
AcDbArc
 50
0.0790559999979832
 51
89.88687099999678
  0
ARC
  5
868
330
1F
100
AcDbEntity
  8
OBJECT1
100
AcDbCircle
 10
17.43167628836408
 20
13.06876586251482
 30
0.0
 40
0.021925918869632
100
AcDbArc
 50
269.8796540000011
 51
314.8079829999976
  0
ARC
  5
869
330
1F
100
AcDbEntity
  8
OBJECT2
100
AcDbCircle
 10
17.43091722481236
 20
13.19043471045083
 30
0.0
 40
0.0210195041924663
100
AcDbArc
 50
270.0173800000029
 51
359.983902000001
  0
ARC
  5
86A
330
1F
100
AcDbEntity
  8
OBJECT1
100
AcDbCircle
 10
17.43162378543658
 20
13.55025188471083
 30
0.0
 40
0.0219234672070585
100
AcDbArc
 50
44.99301099999822
 51
89.98518800000271
  0
LINE
  5
86B
330
1F
100
AcDbEntity
  8
OBJECT2
100
AcDbLine
 10
17.33735997975713
 20
12.43979787851489
 30
0.0
 11
17.19483409619098
 21
12.58232326677031
 31
0.0
  0
LINE
  5
86C
330
1F
100
AcDbEntity
  8
OBJECT2
100
AcDbLine
 10
17.06735426385697
 20
12.45484145319389
 30
0.0
 11
17.3223151668015
 21
12.70980433738091
 31
0.0
  0
LINE
  5
86D
330
1F
100
AcDbEntity
  8
OBJECT2
100
AcDbLine
 10
16.68002159306834
 20
12.52196471249723
 30
0.0
 11
17.26655854366035
 21
13.1085016630893
 31
0.0
  0
LINE
  5
86E
330
1F
100
AcDbEntity
  8
OBJECT1
100
AcDbLine
 10
17.4316297291642
 20
13.57217532414327
 30
0.0
 11
16.77142844699133
 21
13.57217606710926
 31
0.0
  0
LINE
  5
86F
330
1F
100
AcDbEntity
  8
OBJECT2
100
AcDbLine
 10
16.86514295317403
 20
12.32197462236766
 30
0.0
 11
17.45518620776809
 21
12.91201589571929
 31
0.0
  0
LINE
  5
870
330
1F
100
AcDbEntity
  8
OBJECT1
100
AcDbLine
 10
17.43388463084096
 20
12.53632054835625
 30
0.0
 11
17.24083582398384
 21
12.34327372274165
 31
0.0
  0
LINE
  5
871
330
1F
100
AcDbEntity
  8
OBJECT1
100
AcDbLine
 10
16.73656353122495
 20
13.80480762355389
 30
0.0
 11
16.63515189773733
 21
13.70339599006612
 31
0.0
  0
LINE
  5
872
330
1F
100
AcDbEntity
  8
OBJECT1
100
AcDbLine
 10
16.63515165008195
 20
13.67219711598247
 30
0.0
 11
16.70952179932106
 21
13.59782696674344
 31
0.0
  0
LINE
  5
873
330
1F
100
AcDbEntity
  8
OBJECT2
100
AcDbLine
 10
16.61394591576302
 20
12.87897892386027
 30
0.0
 11
16.82839734291744
 21
12.87900096518356
 31
0.0
  0
LINE
  5
874
330
1F
100
AcDbEntity
  8
OBJECT2
100
AcDbLine
 10
16.61394542045252
 20
12.98412098941358
 30
0.0
 11
16.82839759057273
 21
12.98411009257952
 31
0.0
  0
LINE
  5
875
330
1F
100
AcDbEntity
  8
OBJECT1
100
AcDbLine
 10
16.54697248792754
 20
12.38888341216497
 30
0.0
 11
16.68002159306834
 21
12.52196471249723
 31
0.0
  0
ARC
  5
876
330
1F
100
AcDbEntity
  8
OBJECT1
100
AcDbCircle
 10
16.65076829916841
 20
13.68779692450735
 30
0.0
 40
0.0220730186240407
100
AcDbArc
 50
135.0312189999992
 51
224.9687810000007
  0
LINE
  5
877
330
1F
100
AcDbEntity
  8
OBJECT2
100
AcDbLine
 10
16.61394542045252
 20
12.98412098941358
 30
0.0
 11
16.61394591576302
 21
12.87897892386027
 31
0.0
  0
LINE
  5
878
330
1F
100
AcDbEntity
  8
OBJECT1
100
AcDbLine
 10
18.39669296968264
 20
13.6066542867189
 30
0.0
 11
18.25518742151461
 21
13.6066542867189
 31
0.0
  0
LINE
  5
879
330
1F
100
AcDbEntity
  8
OBJECT1
100
AcDbLine
 10
18.39669296968264
 20
13.6066542867189
 30
0.0
 11
18.42361834104139
 21
13.53259809307493
 31
0.0
  0
LINE
  5
87A
330
1F
100
AcDbEntity
  8
OBJECT2
100
AcDbLine
 10
18.09099885247707
 20
13.77762417899893
 30
0.0
 11
18.04431044941475
 21
13.77762678661892
 31
0.0
  0
LINE
  5
87B
330
1F
100
AcDbEntity
  8
OBJECT2
100
AcDbLine
 10
18.07460860504568
 20
13.76245572320383
 30
0.0
 11
18.05184901784298
 21
13.7678507897879
 31
0.0
  0
LINE
  5
87C
330
1F
100
AcDbEntity
  8
OBJECT2
100
AcDbLine
 10
18.046016819989
 20
13.74031626078735
 30
0.0
 11
18.04602886224057
 21
13.73045997400154
 31
0.0
  0
LINE
  5
87D
330
1F
100
AcDbEntity
  8
OBJECT2
100
AcDbLine
 10
18.046016819989
 20
13.74031626078735
 30
0.0
 11
18.07460860504568
 21
13.74031044807375
 31
0.0
  0
LINE
  5
87E
330
1F
100
AcDbEntity
  8
OBJECT2
100
AcDbLine
 10
18.04602886224057
 20
13.73045997400154
 30
0.0
 11
17.90981446301396
 21
13.73045997400154
 31
0.0
  0
LINE
  5
87F
330
1F
100
AcDbEntity
  8
OBJECT2
100
AcDbLine
 10
17.73335670322754
 20
13.6121567617092
 30
0.0
 11
17.73335670322754
 21
13.00688451277167
 31
0.0
  0
LINE
  5
880
330
1F
100
AcDbEntity
  8
OBJECT2
100
AcDbLine
 10
17.68933690330482
 20
13.61215676170925
 30
0.0
 11
17.68933690330482
 21
13.00688451277167
 31
0.0
  0
LINE
  5
881
330
1F
100
AcDbEntity
  8
OBJECT2
100
AcDbLine
 10
17.87366981548126
 20
13.58960832325917
 30
0.0
 11
17.87366981548126
 21
13.01513822525717
 31
0.0
  0
LWPOLYLINE
  5
882
330
1F
100
AcDbEntity
  8
OBJECT2
100
AcDbPolyline
 90
        9
 70
     0
 43
0.0
 10
17.86236589202656
 20
13.6121567617092
 42
0.1905501701278108
 10
17.86841488342756
 20
13.59510461139709
 42
0.1007393744425078
 10
17.89492102421599
 20
13.57484881932427
 42
0.0588230483370789
 10
17.92928312358123
 20
13.56291705264865
 42
0.0452811016098142
 10
17.97609458117091
 20
13.55697790718719
 42
0.0452811016098186
 10
18.02321045816268
 20
13.55956250498499
 42
0.0588230483370834
 10
18.05833619413317
 20
13.56901256325582
 42
0.1007393744425082
 10
18.08621980253241
 20
13.58732586428621
 42
0.1905501701278099
 10
18.0934698416209
 20
13.6039030492237
 42
0.1905501701278218
  0
LINE
  5
883
330
1F
100
AcDbEntity
  8
OBJECT2
100
AcDbLine
 10
17.51570996763504
 20
13.53262533263156
 30
0.0
 11
17.51570996763504
 21
13.08647042096257
 31
0.0
  0
LINE
  5
884
330
1F
100
AcDbEntity
  8
OBJECT2
100
AcDbLine
 10
17.51601004930796
 20
13.26282556221818
 30
0.0
 11
17.54394667064679
 21
13.16098623757048
 31
0.0
  0
LINE
  5
885
330
1F
100
AcDbEntity
  8
OBJECT2
100
AcDbLine
 10
17.51606452842122
 20
13.35631127398593
 30
0.0
 11
17.54394667064679
 21
13.45813675558028
 31
0.0
  0
LINE
  5
886
330
1F
100
AcDbEntity
  8
OBJECT1
100
AcDbLine
 10
17.86236589202658
 20
13.6121567617092
 30
0.0
 11
17.68933690330482
 21
13.61215676170925
 31
0.0
  0
ARC
  5
887
330
1F
100
AcDbEntity
  8
OBJECT1
100
AcDbCircle
 10
17.82932900334216
 20
13.84229866815874
 30
0.0
 40
0.0646540811365122
100
AcDbArc
 50
204.7918042881929
 51
269.9976318190975
  0
LINE
  5
888
330
1F
100
AcDbEntity
  8
OBJECT2
  6
CONTINUOUS
100
AcDbLine
 10
17.91153326202791
 20
13.80789039901858
 30
0.0
 11
17.89197071114594
 21
13.81320247538136
 31
0.0
  0
LINE
  5
889
330
1F
100
AcDbEntity
  8
OBJECT1
100
AcDbLine
 10
17.91155124331845
 20
13.80790480098451
 30
0.0
 11
17.82932758189628
 21
13.80790819949848
 31
0.0
  0
LINE
  5
88A
330
1F
100
AcDbEntity
  8
OBJECT2
100
AcDbLine
 10
17.91153654503915
 20
13.77762678674977
 30
0.0
 11
18.04440437680495
 21
13.77764120031613
 31
0.0
  0
LINE
  5
88B
330
1F
100
AcDbEntity
  8
OBJECT2
100
AcDbLine
 10
18.04490694751521
 20
13.7678507897879
 30
0.0
 11
17.904028781188
 21
13.7678507897879
 31
0.0
  0
LINE
  5
88C
330
1F
100
AcDbEntity
  8
OBJECT2
100
AcDbLine
 10
18.046016819989
 20
13.74031626078735
 30
0.0
 11
17.90982650526552
 21
13.74031626078735
 31
0.0
  0
LINE
  5
88D
330
1F
100
AcDbEntity
  8
OBJECT2
100
AcDbLine
 10
17.97794051012789
 20
13.80789039901858
 30
0.0
 11
17.93192011650083
 21
13.81375538814384
 31
0.0
  0
LINE
  5
88E
330
1F
100
AcDbEntity
  8
OBJECT2
100
AcDbLine
 10
17.91155124331845
 20
13.80790480098451
 30
0.0
 11
18.04429787544069
 21
13.80790480098451
 31
0.0
  0
LINE
  5
88F
330
1F
100
AcDbEntity
  8
OBJECT2
100
AcDbLine
 10
17.93192011650083
 20
13.81375538814384
 30
0.0
 11
17.91153326202791
 21
13.80789039901858
 31
0.0
  0
LINE
  5
890
330
1F
100
AcDbEntity
  8
OBJECT2
100
AcDbLine
 10
18.04490694751521
 20
13.76782886194482
 30
0.0
 11
18.04490694751521
 21
13.77762675330356
 31
0.0
  0
LINE
  5
891
330
1F
100
AcDbEntity
  8
OBJECT2
  6
CONTINUOUS
100
AcDbLine
 10
18.04434806523104
 20
13.80789039901858
 30
0.0
 11
18.06389158191464
 21
13.81320247538136
 31
0.0
  0
LINE
  5
892
330
1F
100
AcDbEntity
  8
OBJECT2
100
AcDbLine
 10
18.05184901784298
 20
13.7678507897879
 30
0.0
 11
18.04490694751521
 21
13.7678507897879
 31
0.0
  0
LINE
  5
893
330
1F
100
AcDbEntity
  8
OBJECT2
100
AcDbLine
 10
18.044297874036
 20
13.80790480138759
 30
0.0
 11
18.0444010937937
 21
13.80790481258495
 31
0.0
  0
LINE
  5
894
330
1F
100
AcDbEntity
  8
OBJECT2
100
AcDbLine
 10
18.04434806523104
 20
13.80789039901858
 30
0.0
 11
18.02394217655978
 21
13.81374587104463
 31
0.0
  0
LINE
  5
895
330
1F
100
AcDbEntity
  8
OBJECT2
100
AcDbLine
 10
17.97788403194857
 20
13.80789759678205
 30
0.0
 11
17.97799715348995
 21
13.80789760905352
 31
0.0
  0
LINE
  5
896
330
1F
100
AcDbEntity
  8
OBJECT2
100
AcDbLine
 10
18.02394217655978
 20
13.81374587104463
 30
0.0
 11
17.97794051012789
 21
13.80789039901858
 31
0.0
  0
LINE
  5
897
330
1F
100
AcDbEntity
  8
OBJECT1
100
AcDbLine
 10
18.09100054274688
 20
13.80788779139865
 30
0.0
 11
18.04431213968462
 21
13.80789039901858
 31
0.0
  0
LINE
  5
898
330
1F
100
AcDbEntity
  8
OBJECT2
  6
CONTINUOUS
100
AcDbLine
 10
17.91092003400535
 20
13.76785610150145
 30
0.0
 11
17.91092003400535
 21
13.77764121460129
 31
0.0
  0
LINE
  5
899
330
1F
100
AcDbEntity
  8
OBJECT2
100
AcDbLine
 10
17.904028781188
 20
13.7678507897879
 30
0.0
 11
17.92610115614104
 21
13.7678507897879
 31
0.0
  0
LINE
  5
89A
330
1F
100
AcDbEntity
  8
OBJECT2
  6
CONTINUOUS
100
AcDbLine
 10
17.8812271286018
 20
13.74034976255259
 30
0.0
 11
17.90982653909367
 21
13.74034394828882
 31
0.0
  0
LINE
  5
89B
330
1F
100
AcDbEntity
  8
OBJECT1
100
AcDbLine
 10
17.90981446301396
 20
13.73045997400154
 30
0.0
 11
17.86236589202656
 21
13.73045997400154
 31
0.0
  0
LINE
  5
89C
330
1F
100
AcDbEntity
  8
OBJECT1
100
AcDbLine
 10
17.86236589202658
 20
13.6121567617092
 30
0.0
 11
17.86236589202656
 21
13.73045997400154
 31
0.0
  0
LINE
  5
89D
330
1F
100
AcDbEntity
  8
OBJECT2
  6
CONTINUOUS
100
AcDbLine
 10
17.88125160873397
 20
13.76245572320383
 30
0.0
 11
17.904028781188
 21
13.7678507897879
 31
0.0
  0
LINE
  5
89E
330
1F
100
AcDbEntity
  8
OBJECT1
100
AcDbLine
 10
17.91154999244608
 20
13.77764118856347
 30
0.0
 11
17.82932633102388
 21
13.77764458707744
 31
0.0
  0
LINE
  5
89F
330
1F
100
AcDbEntity
  8
OBJECT1
  6
CONTINUOUS
100
AcDbLine
 10
17.88125160873397
 20
13.76245572320383
 30
0.0
 11
17.8812271286018
 21
13.74034976255259
 31
0.0
  0
LINE
  5
8A0
330
1F
100
AcDbEntity
  8
OBJECT2
  6
CONTINUOUS
100
AcDbLine
 10
17.90982653909367
 20
13.74034394828882
 30
0.0
 11
17.90981446301396
 21
13.73045997400154
 31
0.0
  0
LINE
  5
8A1
330
1F
100
AcDbEntity
  8
OBJECT2
100
AcDbLine
 10
17.91739064192998
 20
13.64792284914645
 30
0.0
 11
17.91739064192998
 21
13.73045997400154
 31
0.0
  0
LINE
  5
8A2
330
1F
100
AcDbEntity
  8
OBJECT2
100
AcDbLine
 10
17.91739064192998
 20
13.64792284914645
 30
0.0
 11
17.86236589202656
 21
13.64792284914645
 31
0.0
  0
LINE
  5
8A3
330
1F
100
AcDbEntity
  8
OBJECT2
100
AcDbLine
 10
17.91739064192998
 20
13.67543522409815
 30
0.0
 11
17.86236589202656
 21
13.67543522409815
 31
0.0
  0
LINE
  5
8A4
330
1F
100
AcDbEntity
  8
OBJECT1
100
AcDbLine
 10
17.51570996763504
 20
13.53262533263156
 30
0.0
 11
17.54402838931665
 21
13.60667807677694
 31
0.0
  0
LINE
  5
8A5
330
1F
100
AcDbEntity
  8
OBJECT1
100
AcDbLine
 10
17.68933690330482
 20
13.60664627675916
 30
0.0
 11
17.54402838931665
 21
13.60667807677694
 31
0.0
  0
LINE
  5
8A6
330
1F
100
AcDbEntity
  8
OBJECT2
100
AcDbLine
 10
17.54394667064679
 20
13.45813675558028
 30
0.0
 11
17.68933690330482
 21
13.45808980362702
 31
0.0
  0
LINE
  5
8A7
330
1F
100
AcDbEntity
  8
OBJECT2
100
AcDbLine
 10
17.51570996763504
 20
13.53262533263156
 30
0.0
 11
17.54394667064679
 21
13.45813675558028
 31
0.0
  0
LINE
  5
8A8
330
1F
100
AcDbEntity
  8
OBJECT1
100
AcDbLine
 10
18.13748964154365
 20
13.01513822525717
 30
0.0
 11
17.87366981548126
 21
13.01513822525717
 31
0.0
  0
LINE
  5
8A9
330
1F
100
AcDbEntity
  8
OBJECT2
100
AcDbLine
 10
18.2391959085987
 20
13.56263448679615
 30
0.0
 11
18.2391959085987
 21
13.05640678768472
 31
0.0
  0
LINE
  5
8AA
330
1F
100
AcDbEntity
  8
OBJECT2
100
AcDbLine
 10
18.15644933053585
 20
13.56263448679615
 30
0.0
 11
18.15644933053582
 21
13.05640678768472
 31
0.0
  0
LINE
  5
8AB
330
1F
100
AcDbEntity
  8
OBJECT2
100
AcDbLine
 10
18.13748964154365
 20
13.6039030492237
 30
0.0
 11
18.13748964154365
 21
13.01513822525717
 31
0.0
  0
LINE
  5
8AC
330
1F
100
AcDbEntity
  8
OBJECT2
100
AcDbLine
 10
18.42361834104139
 20
13.36116259436485
 30
0.0
 11
18.39573619881582
 21
13.46294743989929
 31
0.0
  0
LINE
  5
8AD
330
1F
100
AcDbEntity
  8
OBJECT2
100
AcDbLine
 10
18.42361834104139
 20
13.08644318140594
 30
0.0
 11
18.42361834104139
 21
13.53259809307493
 31
0.0
  0
LINE
  5
8AE
330
1F
100
AcDbEntity
  8
OBJECT1
100
AcDbLine
 10
18.2391959085987
 20
13.56263448679615
 30
0.0
 11
18.15644933053585
 21
13.56263448679615
 31
0.0
  0
LINE
  5
8AF
330
1F
100
AcDbEntity
  8
OBJECT1
100
AcDbLine
 10
18.0934698416209
 20
13.6039030492237
 30
0.0
 11
18.0934698416209
 21
13.73045997400154
 31
0.0
  0
LINE
  5
8B0
330
1F
100
AcDbEntity
  8
OBJECT1
100
AcDbLine
 10
18.13748964154365
 20
13.6039030492237
 30
0.0
 11
18.0934698416209
 21
13.6039030492237
 31
0.0
  0
LINE
  5
8B1
330
1F
100
AcDbEntity
  8
OBJECT1
100
AcDbLine
 10
18.1512458290195
 20
13.67543522409815
 30
0.0
 11
18.1512458290195
 21
13.73045997400154
 31
0.0
  0
LINE
  5
8B2
330
1F
100
AcDbEntity
  8
OBJECT1
100
AcDbLine
 10
18.1512458290195
 20
13.67543522409815
 30
0.0
 11
18.0934698416209
 21
13.64792284914645
 31
0.0
  0
ARC
  5
8B3
330
1F
100
AcDbEntity
  8
OBJECT2
100
AcDbCircle
 10
18.09099799921301
 20
13.76691081523998
 30
0.0
 40
0.0107133637907434
100
AcDbArc
 50
359.9964435210062
 51
89.99644352100627
  0
LINE
  5
8B4
330
1F
100
AcDbEntity
  8
OBJECT2
100
AcDbLine
 10
18.10170910043803
 20
13.73045997400154
 30
0.0
 11
18.0934698416209
 21
13.73045997400154
 31
0.0
  0
LINE
  5
8B5
330
1F
100
AcDbEntity
  8
OBJECT2
100
AcDbLine
 10
18.13196915090353
 20
13.6730746108611
 30
0.0
 11
18.13197271294319
 21
13.73045997400154
 31
0.0
  0
LINE
  5
8B6
330
1F
100
AcDbEntity
  8
OBJECT2
100
AcDbLine
 10
18.10170553851497
 20
13.67307648939217
 30
0.0
 11
18.10170910040628
 21
13.73045946257209
 31
0.0
  0
LINE
  5
8B7
330
1F
100
AcDbEntity
  8
OBJECT2
100
AcDbLine
 10
18.13196915090353
 20
13.6730746108611
 30
0.0
 11
18.10170553851497
 21
13.67307648939217
 31
0.0
  0
LINE
  5
8B8
330
1F
100
AcDbEntity
  8
OBJECT1
100
AcDbLine
 10
18.1512458290195
 20
13.73045997400154
 30
0.0
 11
18.13197271294319
 21
13.73045997400154
 31
0.0
  0
LINE
  5
8B9
330
1F
100
AcDbEntity
  8
OBJECT2
100
AcDbLine
 10
18.0934698416209
 20
13.73045997400154
 30
0.0
 11
18.04602886224057
 21
13.73045997400154
 31
0.0
  0
LINE
  5
8BA
330
1F
100
AcDbEntity
  8
OBJECT2
100
AcDbLine
 10
18.07460860504568
 20
13.76245572320383
 30
0.0
 11
18.07460860504568
 21
13.74031044807375
 31
0.0
  0
LINE
  5
8BB
330
1F
100
AcDbEntity
  8
OBJECT2
100
AcDbLine
 10
18.10170910040628
 20
13.73045946257209
 30
0.0
 11
18.10171136298313
 21
13.76691015023718
 31
0.0
  0
LINE
  5
8BC
330
1F
100
AcDbEntity
  8
OBJECT1
100
AcDbLine
 10
18.13197271294319
 20
13.73045997400154
 30
0.0
 11
18.13197497537172
 21
13.76690827170611
 31
0.0
  0
LINE
  5
8BD
330
1F
100
AcDbEntity
  8
OBJECT1
100
AcDbLine
 10
18.13748964154365
 20
13.6039030492237
 30
0.0
 11
18.15644933053585
 21
13.56263448679615
 31
0.0
  0
LINE
  5
8BE
330
1F
100
AcDbEntity
  8
OBJECT2
100
AcDbLine
 10
18.2391959085987
 20
13.36113535480822
 30
0.0
 11
18.2669958856043
 21
13.46294743989935
 31
0.0
  0
LINE
  5
8BF
330
1F
100
AcDbEntity
  8
OBJECT2
100
AcDbLine
 10
18.2669958856043
 20
13.46294743989935
 30
0.0
 11
18.2392231481553
 21
13.53259809307499
 31
0.0
  0
LINE
  5
8C0
330
1F
100
AcDbEntity
  8
OBJECT1
100
AcDbLine
 10
18.2391959085987
 20
13.56263448679615
 30
0.0
 11
18.25518742151461
 21
13.6066542867189
 31
0.0
  0
LINE
  5
8C1
330
1F
100
AcDbEntity
  8
OBJECT2
100
AcDbLine
 10
18.42361834104139
 20
13.53259809307493
 30
0.0
 11
18.42361834104139
 21
13.53259809307493
 31
0.0
  0
LINE
  5
8C2
330
1F
100
AcDbEntity
  8
OBJECT2
100
AcDbLine
 10
18.39573619881582
 20
13.46294743989929
 30
0.0
 11
18.42361834104139
 21
13.53259809307493
 31
0.0
  0
LINE
  5
8C3
330
1F
100
AcDbEntity
  8
OBJECT2
100
AcDbLine
 10
18.2669958856043
 20
13.46294743989935
 30
0.0
 11
18.39573619881582
 21
13.46294743989929
 31
0.0
  0
LINE
  5
8C4
330
1F
100
AcDbEntity
  8
OBJECT1
100
AcDbLine
 10
18.39669296968264
 20
13.01238698776202
 30
0.0
 11
18.42361834104139
 21
13.08644318140594
 31
0.0
  0
LINE
  5
8C5
330
1F
100
AcDbEntity
  8
OBJECT2
100
AcDbLine
 10
18.26702357171103
 20
13.15614876024491
 30
0.0
 11
18.39573619881582
 21
13.15614876024491
 31
0.0
  0
LINE
  5
8C6
330
1F
100
AcDbEntity
  8
OBJECT2
100
AcDbLine
 10
18.2391959085987
 20
13.25794700228263
 30
0.0
 11
18.26702357171103
 21
13.15614876024491
 31
0.0
  0
LINE
  5
8C7
330
1F
100
AcDbEntity
  8
OBJECT2
100
AcDbLine
 10
18.39573619881582
 20
13.15614876024491
 30
0.0
 11
18.42361834104139
 21
13.08644318140594
 31
0.0
  0
LINE
  5
8C8
330
1F
100
AcDbEntity
  8
OBJECT2
100
AcDbLine
 10
18.42361834104139
 20
13.25790591967265
 30
0.0
 11
18.39573619881582
 21
13.15614876024491
 31
0.0
  0
LINE
  5
8C9
330
1F
100
AcDbEntity
  8
OBJECT2
100
AcDbLine
 10
18.42361834104139
 20
13.08644318140594
 30
0.0
 11
18.42361834104139
 21
13.08644318140594
 31
0.0
  0
LINE
  5
8CA
330
1F
100
AcDbEntity
  8
OBJECT1
100
AcDbLine
 10
18.39669296968264
 20
13.01238698776202
 30
0.0
 11
18.25518742151461
 21
13.01238698776202
 31
0.0
  0
LINE
  5
8CB
330
1F
100
AcDbEntity
  8
OBJECT1
100
AcDbLine
 10
18.13748964154365
 20
13.01513822525717
 30
0.0
 11
18.15644933053582
 21
13.05640678768472
 31
0.0
  0
LINE
  5
8CC
330
1F
100
AcDbEntity
  8
OBJECT1
100
AcDbLine
 10
18.2391959085987
 20
13.05640678768472
 30
0.0
 11
18.15644933053582
 21
13.05640678768472
 31
0.0
  0
LINE
  5
8CD
330
1F
100
AcDbEntity
  8
OBJECT2
100
AcDbLine
 10
18.26702357171103
 20
13.15614876024491
 30
0.0
 11
18.23922314815533
 21
13.08644318140594
 31
0.0
  0
LINE
  5
8CE
330
1F
100
AcDbEntity
  8
OBJECT1
100
AcDbLine
 10
18.2391959085987
 20
13.05640678768472
 30
0.0
 11
18.25518742151461
 21
13.01238698776202
 31
0.0
  0
LINE
  5
8CF
330
1F
100
AcDbEntity
  8
OBJECT1
100
AcDbLine
 10
17.54408286842988
 20
13.01241812336726
 30
0.0
 11
17.68933690330482
 21
13.01241812336726
 31
0.0
  0
LINE
  5
8D0
330
1F
100
AcDbEntity
  8
OBJECT2
100
AcDbLine
 10
17.51568272807844
 20
13.08653874312912
 30
0.0
 11
17.54394667064679
 21
13.16098623757048
 31
0.0
  0
LINE
  5
8D1
330
1F
100
AcDbEntity
  8
OBJECT2
100
AcDbLine
 10
17.54394667064679
 20
13.16098623757048
 30
0.0
 11
17.68933690330482
 21
13.16098623757048
 31
0.0
  0
LINE
  5
8D2
330
1F
100
AcDbEntity
  8
OBJECT1
100
AcDbLine
 10
17.51570996763504
 20
13.08647042096257
 30
0.0
 11
17.54402838931665
 21
13.01247260248052
 31
0.0
  0
LINE
  5
8D3
330
1F
100
AcDbEntity
  8
OBJECT1
100
AcDbLine
 10
17.87366981548126
 20
13.00688451277167
 30
0.0
 11
17.68933690330482
 21
13.00688451277167
 31
0.0
  0
LINE
  5
8D4
330
1F
100
AcDbEntity
  8
OBJECT1
100
AcDbLine
 10
17.87366981548126
 20
13.01513822525717
 30
0.0
 11
17.87366981548126
 21
13.00688451277167
 31
0.0
  0
LINE
  5
8D5
330
1F
100
AcDbEntity
  8
OBJECT2
100
AcDbLine
 10
18.45878743825142
 20
13.52723891603332
 30
0.0
 11
18.46882987102208
 21
13.08656326431608
 31
0.0
  0
LINE
  5
8D6
330
1F
100
AcDbEntity
  8
OBJECT2
100
AcDbLine
 10
18.45878743825142
 20
13.52723891603332
 30
0.0
 11
18.46882987102208
 21
13.08656326431608
 31
0.0
  0
LINE
  5
8D7
330
1F
100
AcDbEntity
  8
OBJECT2
100
AcDbLine
 10
18.43872282636206
 20
13.52720833731396
 30
0.0
 11
18.44876525913272
 21
13.08653268559672
 31
0.0
  0
LINE
  5
8D8
330
1F
100
AcDbEntity
  8
OBJECT2
100
AcDbLine
 10
18.43872282636206
 20
13.52720833731396
 30
0.0
 11
18.44876525913272
 21
13.08653268559672
 31
0.0
  0
LINE
  5
8D9
330
1F
100
AcDbEntity
  8
OBJECT2
100
AcDbLine
 10
18.42361834104139
 20
13.30952063724035
 30
0.0
 11
18.42870064724337
 21
13.0865021068773
 31
0.0
  0
LINE
  5
8DA
330
1F
100
AcDbEntity
  8
OBJECT2
100
AcDbLine
 10
18.42361834104139
 20
13.30952063724052
 30
0.0
 11
18.42870064724337
 21
13.0865021068773
 31
0.0
  0
LINE
  5
8DB
330
1F
100
AcDbEntity
  8
OBJECT2
100
AcDbLine
 10
18.46879196548894
 20
13.08656776118661
 30
0.0
 11
18.4757983493026
 21
13.07443234844399
 31
0.0
  0
LINE
  5
8DC
330
1F
100
AcDbEntity
  8
OBJECT2
100
AcDbLine
 10
18.44872735359959
 20
13.08653718246719
 30
0.0
 11
18.45876978361954
 21
13.06914318344118
 31
0.0
  0
LINE
  5
8DD
330
1F
100
AcDbEntity
  8
OBJECT2
100
AcDbLine
 10
18.4688122163902
 20
13.08653268559672
 30
0.0
 11
18.45876978637025
 21
13.06913868657065
 31
0.0
  0
LINE
  5
8DE
330
1F
100
AcDbEntity
  8
OBJECT2
100
AcDbLine
 10
18.42866274171024
 20
13.08650660374778
 30
0.0
 11
18.43870517173019
 21
13.06911260472176
 31
0.0
  0
LINE
  5
8DF
330
1F
100
AcDbEntity
  8
OBJECT2
100
AcDbLine
 10
18.44874760450085
 20
13.0865021068773
 30
0.0
 11
18.4387051744809
 21
13.06910810785123
 31
0.0
  0
LINE
  5
8E0
330
1F
100
AcDbEntity
  8
OBJECT2
100
AcDbLine
 10
18.46879196548894
 20
13.54463291505939
 30
0.0
 11
18.4757983493026
 21
13.53249750231677
 31
0.0
  0
LINE
  5
8E1
330
1F
100
AcDbEntity
  8
OBJECT2
100
AcDbLine
 10
18.46882987102208
 20
13.54462841818886
 30
0.0
 11
18.4587874410021
 21
13.52723441916285
 31
0.0
  0
LINE
  5
8E2
330
1F
100
AcDbEntity
  8
OBJECT2
100
AcDbLine
 10
18.44876525913272
 20
13.5445978394695
 30
0.0
 11
18.43872282911275
 21
13.52720384044343
 31
0.0
  0
LINE
  5
8E3
330
1F
100
AcDbEntity
  8
OBJECT2
100
AcDbLine
 10
18.44872735359959
 20
13.54460233633997
 30
0.0
 11
18.45876978361954
 21
13.52720833731396
 31
0.0
  0
LINE
  5
8E4
330
1F
100
AcDbEntity
  8
OBJECT2
100
AcDbLine
 10
18.42870064724337
 20
13.54456726075008
 30
0.0
 11
18.42291195559789
 21
13.53454095271072
 31
0.0
  0
LINE
  5
8E5
330
1F
100
AcDbEntity
  8
OBJECT2
100
AcDbLine
 10
18.42866274171024
 20
13.54457175762056
 30
0.0
 11
18.43870517173019
 21
13.52717775859454
 31
0.0
  0
LINE
  5
8E6
330
1F
100
AcDbEntity
  8
OBJECT1
100
AcDbLine
 10
18.42866274171024
 20
13.08650660374778
 30
0.0
 11
18.4235929721859
 21
13.08650660374778
 31
0.0
  0
LINE
  5
8E7
330
1F
100
AcDbEntity
  8
OBJECT1
100
AcDbLine
 10
18.83180295708771
 20
12.95329787679705
 30
0.0
 11
18.81513629458771
 21
12.92443037055446
 31
0.0
  0
LINE
  5
8E8
330
1F
100
AcDbEntity
  8
OBJECT1
100
AcDbLine
 10
18.81513629458771
 20
13.66579787679703
 30
0.0
 11
18.83180295708771
 21
13.69466538303967
 31
0.0
  0
LINE
  5
8E9
330
1F
100
AcDbEntity
  8
OBJECT1
100
AcDbLine
 10
18.69846965708771
 20
13.69466538303967
 30
0.0
 11
18.71513631958771
 21
12.92443037055446
 31
0.0
  0
LINE
  5
8EA
330
1F
100
AcDbEntity
  8
OBJECT1
100
AcDbLine
 10
18.81513629458771
 20
12.92443037055446
 30
0.0
 11
18.79846963208771
 21
13.69466538303967
 31
0.0
  0
LINE
  5
8EB
330
1F
100
AcDbEntity
  8
OBJECT1
100
AcDbLine
 10
18.76513630708771
 20
13.69466538303967
 30
0.0
 11
18.78180296958771
 21
12.92443037055446
 31
0.0
  0
LINE
  5
8EC
330
1F
100
AcDbEntity
  8
OBJECT1
100
AcDbLine
 10
18.73180298208771
 20
13.69466538303967
 30
0.0
 11
18.74846964458771
 21
12.92443037055446
 31
0.0
  0
LINE
  5
8ED
330
1F
100
AcDbEntity
  8
OBJECT1
100
AcDbLine
 10
18.68180299458771
 20
13.66579787679703
 30
0.0
 11
18.68180299458771
 21
12.95329787679705
 31
0.0
  0
LINE
  5
8EE
330
1F
100
AcDbEntity
  8
OBJECT1
100
AcDbLine
 10
18.63312937290984
 20
13.73984963391419
 30
0.0
 11
18.63312937290984
 21
12.87924611967989
 31
0.0
  0
LINE
  5
8EF
330
1F
100
AcDbEntity
  8
OBJECT1
100
AcDbLine
 10
18.4757983493026
 20
12.87924611967989
 30
0.0
 11
18.4757983493026
 21
13.73984963391419
 31
0.0
  0
LINE
  5
8F0
330
1F
100
AcDbEntity
  8
OBJECT1
100
AcDbLine
 10
18.68180299458771
 20
12.95329787679705
 30
0.0
 11
18.63312937290984
 21
12.95329787679705
 31
0.0
  0
LINE
  5
8F1
330
1F
100
AcDbEntity
  8
OBJECT1
100
AcDbLine
 10
18.79846963208771
 20
12.95329787679705
 30
0.0
 11
18.81513629458771
 21
12.92443037055446
 31
0.0
  0
LINE
  5
8F2
330
1F
100
AcDbEntity
  8
OBJECT1
100
AcDbLine
 10
18.76513630708771
 20
12.95329787679705
 30
0.0
 11
18.78180296958771
 21
12.92443037055446
 31
0.0
  0
LINE
  5
8F3
330
1F
100
AcDbEntity
  8
OBJECT1
100
AcDbLine
 10
18.79846963208771
 20
12.95329787679705
 30
0.0
 11
18.78180296958771
 21
12.92443037055446
 31
0.0
  0
LINE
  5
8F4
330
1F
100
AcDbEntity
  8
OBJECT1
100
AcDbLine
 10
18.73180298208771
 20
12.95329787679705
 30
0.0
 11
18.71513631958771
 21
12.92443037055446
 31
0.0
  0
LINE
  5
8F5
330
1F
100
AcDbEntity
  8
OBJECT1
100
AcDbLine
 10
18.69846965708771
 20
12.95329787679705
 30
0.0
 11
18.71513631958771
 21
12.92443037055446
 31
0.0
  0
LINE
  5
8F6
330
1F
100
AcDbEntity
  8
OBJECT1
100
AcDbLine
 10
18.69846965708771
 20
12.95329787679705
 30
0.0
 11
18.68180299458771
 21
12.95329787679705
 31
0.0
  0
LINE
  5
8F7
330
1F
100
AcDbEntity
  8
OBJECT1
100
AcDbLine
 10
18.73180298208771
 20
12.95329787679705
 30
0.0
 11
18.74846964458771
 21
12.92443037055446
 31
0.0
  0
LINE
  5
8F8
330
1F
100
AcDbEntity
  8
OBJECT1
100
AcDbLine
 10
18.76513630708771
 20
12.95329787679705
 30
0.0
 11
18.74846964458771
 21
12.92443037055446
 31
0.0
  0
LINE
  5
8F9
330
1F
100
AcDbEntity
  8
OBJECT1
100
AcDbLine
 10
18.4757983493026
 20
13.73984963391419
 30
0.0
 11
18.63312937290984
 21
13.73984963391419
 31
0.0
  0
LINE
  5
8FA
330
1F
100
AcDbEntity
  8
OBJECT1
100
AcDbLine
 10
18.68180299458771
 20
13.66579787679703
 30
0.0
 11
18.69846965708771
 21
13.69466538303967
 31
0.0
  0
LINE
  5
8FB
330
1F
100
AcDbEntity
  8
OBJECT1
100
AcDbLine
 10
18.71513631958771
 20
13.66579787679703
 30
0.0
 11
18.69846965708771
 21
13.69466538303967
 31
0.0
  0
LINE
  5
8FC
330
1F
100
AcDbEntity
  8
OBJECT1
100
AcDbLine
 10
18.81513629458771
 20
13.66579787679703
 30
0.0
 11
18.79846963208771
 21
13.69466538303967
 31
0.0
  0
LINE
  5
8FD
330
1F
100
AcDbEntity
  8
OBJECT1
100
AcDbLine
 10
18.78180296958771
 20
13.66579787679703
 30
0.0
 11
18.79846963208771
 21
13.69466538303967
 31
0.0
  0
LINE
  5
8FE
330
1F
100
AcDbEntity
  8
OBJECT1
100
AcDbLine
 10
18.78180296958771
 20
13.66579787679703
 30
0.0
 11
18.76513630708771
 21
13.69466538303967
 31
0.0
  0
LINE
  5
8FF
330
1F
100
AcDbEntity
  8
OBJECT1
100
AcDbLine
 10
18.74846964458771
 20
13.66579787679703
 30
0.0
 11
18.76513630708771
 21
13.69466538303967
 31
0.0
  0
LINE
  5
900
330
1F
100
AcDbEntity
  8
OBJECT1
100
AcDbLine
 10
18.71513631958771
 20
13.66579787679703
 30
0.0
 11
18.73180298208771
 21
13.69466538303967
 31
0.0
  0
LINE
  5
901
330
1F
100
AcDbEntity
  8
OBJECT1
100
AcDbLine
 10
18.74846964458771
 20
13.66579787679703
 30
0.0
 11
18.73180298208771
 21
13.69466538303967
 31
0.0
  0
LINE
  5
902
330
1F
100
AcDbEntity
  8
OBJECT1
100
AcDbLine
 10
18.68180299458771
 20
13.66579787679703
 30
0.0
 11
18.63312937290984
 21
13.66579787679703
 31
0.0
  0
LINE
  5
903
330
1F
100
AcDbEntity
  8
OBJECT1
100
AcDbLine
 10
18.88117829759562
 20
12.95329787679705
 30
0.0
 11
18.86513628208771
 21
13.69466538303967
 31
0.0
  0
LINE
  5
904
330
1F
100
AcDbEntity
  8
OBJECT1
100
AcDbLine
 10
18.84846961958771
 20
12.92443037055446
 30
0.0
 11
18.83180295708771
 21
13.69466538303967
 31
0.0
  0
LINE
  5
905
330
1F
100
AcDbEntity
  8
OBJECT1
100
AcDbLine
 10
18.88180294458772
 20
13.66579787679703
 30
0.0
 11
18.88180294458772
 21
12.95329787679705
 31
0.0
  0
LINE
  5
906
330
1F
100
AcDbEntity
  8
OBJECT1
100
AcDbLine
 10
18.89971965708772
 20
13.66579787679703
 30
0.0
 11
18.89971965708787
 21
12.95329787679705
 31
0.0
  0
LINE
  5
907
330
1F
100
AcDbEntity
  8
OBJECT1
100
AcDbLine
 10
19.32477918423663
 20
13.74731036898529
 30
0.0
 11
19.32477918423663
 21
12.87178538460884
 31
0.0
  0
LINE
  5
908
330
1F
100
AcDbEntity
  8
OBJECT1
100
AcDbLine
 10
19.54977486105318
 20
13.74731036898529
 30
0.0
 11
19.54977486105318
 21
12.87178538460884
 31
0.0
  0
LINE
  5
909
330
1F
100
AcDbEntity
  8
OBJECT1
100
AcDbLine
 10
19.64223882832288
 20
13.74731036898529
 30
0.0
 11
19.64223882832288
 21
12.87178538460884
 31
0.0
  0
LINE
  5
90A
330
1F
100
AcDbEntity
  8
OBJECT1
100
AcDbLine
 10
19.75935987665809
 20
13.74731036898529
 30
0.0
 11
19.75935987665809
 21
12.87178538460884
 31
0.0
  0
LINE
  5
90B
330
1F
100
AcDbEntity
  8
OBJECT1
100
AcDbLine
 10
19.37022294563064
 20
12.74605821625678
 30
0.0
 11
19.37022294563064
 21
12.85446732856914
 31
0.0
  0
LINE
  5
90C
330
1F
100
AcDbEntity
  8
OBJECT1
100
AcDbLine
 10
19.49836869823707
 20
12.74605821625678
 30
0.0
 11
19.49836869823707
 21
12.85290813709386
 31
0.0
  0
ELLIPSE
  5
90D
330
1F
100
AcDbEntity
  8
OBJECT1
100
AcDbEllipse
 10
19.43429582193386
 20
12.74605821625678
 30
0.0
 11
-0.064072876303206
 21
0.0
 31
0.0
210
0.0
220
0.0
230
-1.0
 40
0.567607403318576
 41
3.141592653589793
 42
6.283185307179586
  0
ARC
  5
90E
330
1F
100
AcDbEntity
  8
OBJECT1
100
AcDbCircle
 10
19.4372770226449
 20
13.09870459884669
 30
0.0
 40
0.2532747390421107
100
AcDbArc
 50
243.6295507910973
 51
296.3704492089026
  0
LINE
  5
90F
330
1F
100
AcDbEntity
  8
OBJECT1
100
AcDbLine
 10
18.86513628208771
 20
12.95329787679705
 30
0.0
 11
18.84846961958771
 21
12.92443037055446
 31
0.0
  0
LINE
  5
910
330
1F
100
AcDbEntity
  8
OBJECT1
100
AcDbLine
 10
18.83180295708771
 20
12.95329787679705
 30
0.0
 11
18.84846961958771
 21
12.92443037055446
 31
0.0
  0
LINE
  5
911
330
1F
100
AcDbEntity
  8
OBJECT1
100
AcDbLine
 10
18.86513628208771
 20
12.95329787679705
 30
0.0
 11
18.89971965708772
 21
12.95329787679705
 31
0.0
  0
LINE
  5
912
330
1F
100
AcDbEntity
  8
OBJECT1
100
AcDbLine
 10
19.64223882832288
 20
12.87178538460884
 30
0.0
 11
19.75935987665809
 21
12.87178538460884
 31
0.0
  0
LINE
  5
913
330
1F
100
AcDbEntity
  8
OBJECT1
100
AcDbLine
 10
19.54977486105318
 20
12.91894636176792
 30
0.0
 11
19.64223882832288
 21
12.91894636176792
 31
0.0
  0
LINE
  5
914
330
1F
100
AcDbEntity
  8
OBJECT1
100
AcDbLine
 10
19.75935987665809
 20
12.91734283305103
 30
0.0
 11
19.94164563812373
 21
12.91734283305103
 31
0.0
  0
LINE
  5
915
330
1F
100
AcDbEntity
  8
OBJECT1
100
AcDbLine
 10
19.75935987665809
 20
13.7017529205431
 30
0.0
 11
19.97259113093036
 21
13.7017529205431
 31
0.0
  0
ELLIPSE
  5
916
330
1F
100
AcDbEntity
  8
OBJECT1
100
AcDbEllipse
 10
19.43429582193386
 20
13.69877302250009
 30
0.0
 11
-0.064072876303206
 21
0.0
 31
0.0
210
0.0
220
0.0
230
1.0
 40
0.567607403318576
 41
0.0
 42
3.141592653589793
  0
LINE
  5
917
330
1F
100
AcDbEntity
  8
OBJECT1
100
AcDbLine
 10
18.84846961958771
 20
13.66579787679703
 30
0.0
 11
18.86513628208771
 21
13.69466538303967
 31
0.0
  0
LINE
  5
918
330
1F
100
AcDbEntity
  8
OBJECT1
100
AcDbLine
 10
18.88180294458772
 20
13.66579787679703
 30
0.0
 11
18.86513628208771
 21
13.69466538303967
 31
0.0
  0
LINE
  5
919
330
1F
100
AcDbEntity
  8
OBJECT1
100
AcDbLine
 10
18.84846961958771
 20
13.66579787679703
 30
0.0
 11
18.83180295708771
 21
13.69466538303967
 31
0.0
  0
LINE
  5
91A
330
1F
100
AcDbEntity
  8
OBJECT1
100
AcDbLine
 10
18.88180294458772
 20
13.66579787679703
 30
0.0
 11
18.89971965708772
 21
13.66579787679703
 31
0.0
  0
LINE
  5
91B
330
1F
100
AcDbEntity
  8
OBJECT1
100
AcDbLine
 10
19.54977486105318
 20
13.70014939182615
 30
0.0
 11
19.64223882832288
 21
13.70014939182615
 31
0.0
  0
ARC
  5
91C
330
1F
100
AcDbEntity
  8
OBJECT1
100
AcDbCircle
 10
19.4372770226449
 20
13.52039115474744
 30
0.0
 40
0.2532747390421107
100
AcDbArc
 50
105.3520020741015
 51
116.3704492089026
  0
LINE
  5
91D
330
1F
100
AcDbEntity
  8
OBJECT1
100
AcDbLine
 10
19.64223882832288
 20
13.74731036898529
 30
0.0
 11
19.75935987665809
 21
13.74731036898529
 31
0.0
  0
ARC
  5
91E
330
1F
100
AcDbEntity
  8
OBJECT1
100
AcDbCircle
 10
19.4372770226449
 20
13.52039115474744
 30
0.0
 40
0.2532747390421107
100
AcDbArc
 50
63.62955079109736
 51
76.04220227612033
  0
LINE
  5
91F
330
1F
100
AcDbEntity
  8
OBJECT1
100
AcDbLine
 10
18.4757983493026
 20
12.87924611967989
 30
0.0
 11
18.63312937290984
 21
12.87924611967989
 31
0.0
  0
LINE
  5
920
330
1F
100
AcDbEntity
  8
OBJECT1
100
AcDbLine
 10
18.4757983493026
 20
13.52469875535561
 30
0.0
 11
18.63312937290984
 21
13.52469875535561
 31
0.0
  0
LINE
  5
921
330
1F
100
AcDbEntity
  8
OBJECT1
100
AcDbLine
 10
18.4757983493026
 20
13.09439699823846
 30
0.0
 11
18.63312937290984
 21
13.09439699823846
 31
0.0
  0
ELLIPSE
  5
922
330
1F
100
AcDbEntity
  8
OBJECT1
100
AcDbEllipse
 10
20.96887224189399
 20
12.52458921786885
 30
0.0
 11
-0.168212202923742
 21
-0.1010720883767492
 31
0.0
210
0.0
220
0.0
230
1.0
 40
0.7613275216038968
 41
0.0
 42
6.283185307179586
  0
ELLIPSE
  5
923
330
1F
100
AcDbEntity
  8
OBJECT1
100
AcDbEllipse
 10
21.30529664774147
 20
12.72673339462235
 30
0.0
 11
-0.168212202923742
 21
-0.1010720883767492
 31
0.0
210
0.0
220
0.0
230
1.0
 40
0.7613275216038968
 41
0.0
 42
3.141592653589793
  0
LINE
  5
924
330
1F
100
AcDbEntity
  8
OBJECT1
100
AcDbLine
 10
16.18951831689085
 20
14.43474703554144
 30
0.0
 11
16.34869902063945
 21
14.27556633179287
 31
0.0
  0
LINE
  5
925
330
1F
100
AcDbEntity
  8
OBJECT1
100
AcDbLine
 10
16.1393681148545
 20
14.41555572958483
 30
0.0
 11
16.15856041143231
 21
14.43474802616279
 31
0.0
  0
ARC
  5
926
330
1F
100
AcDbEntity
  8
OBJECT1
100
AcDbCircle
 10
16.17403911650629
 20
14.41926040549728
 30
0.0
 40
0.0218964989187503
100
AcDbArc
 50
45.01311500000307
 51
134.9842680000039
  0
LINE
  5
927
330
1F
100
AcDbEntity
  8
OBJECT2
100
AcDbLine
 10
16.1463285914142
 20
14.40846795819143
 30
0.0
 11
16.13168473241955
 21
14.40846746288073
 31
0.0
  0
ARC
  5
928
330
1F
100
AcDbEntity
  8
OBJECT1
100
AcDbCircle
 10
15.94653266305437
 20
14.1936358848122
 30
0.0
 40
0.021042619868159
100
AcDbArc
 50
315.0263670000027
 51
44.97453300000158
  0
LINE
  5
929
330
1F
100
AcDbEntity
  8
OBJECT1
100
AcDbLine
 10
15.96141897660606
 20
14.20850882497657
 30
0.0
 11
15.96141897660606
 21
14.20850882497657
 31
0.0
  0
ARC
  5
92A
330
1F
100
AcDbEntity
  8
OBJECT1
100
AcDbCircle
 10
15.97625625440451
 20
14.22336096209429
 30
0.0
 40
0.020993236379179
100
AcDbArc
 50
134.9735639999996
 51
225.029174999996
  0
LINE
  5
92B
330
1F
100
AcDbEntity
  8
OBJECT1
100
AcDbLine
 10
16.13168473241955
 20
14.40846746288073
 30
0.0
 11
15.96141823364004
 21
14.23821235624595
 31
0.0
  0
LINE
  5
92C
330
1F
100
AcDbEntity
  8
OBJECT1
100
AcDbLine
 10
12.57239301679573
 20
15.04654507110527
 30
0.0
 11
12.57239301679573
 21
15.12571651892906
 31
0.0
  0
ARC
  5
92D
330
1F
100
AcDbEntity
  8
OBJECT1
100
AcDbCircle
 10
12.89701183840529
 20
14.84943865186173
 30
0.0
 40
0.0986436231075607
100
AcDbArc
 50
316.8147140107971
 51
43.18528598920287
  0
LINE
  5
92E
330
1F
100
AcDbEntity
  8
OBJECT1
100
AcDbLine
 10
12.96893728384017
 20
14.78193091394396
 30
0.0
 11
12.96893728384017
 21
14.65658737000458
 31
0.0
  0
LINE
  5
92F
330
1F
100
AcDbEntity
  8
OBJECT1
100
AcDbLine
 10
12.96893728384017
 20
15.04654507110527
 30
0.0
 11
12.96893728384017
 21
14.91694638977955
 31
0.0
  0
ARC
  5
930
330
1F
100
AcDbEntity
  8
OBJECT1
100
AcDbCircle
 10
11.25515495454715
 20
15.04961411094316
 30
0.0
 40
1.154351982432478
100
AcDbArc
 50
3.780052891397221
 51
45.22103173759227
  0
LINE
  5
931
330
1F
100
AcDbEntity
  8
OBJECT1
100
AcDbLine
 10
12.07969422592859
 20
15.12571651892901
 30
0.0
 11
12.40699562184647
 21
15.12571651892901
 31
0.0
  0
LINE
  5
932
330
1F
100
AcDbEntity
  8
OBJECT1
100
AcDbLine
 10
15.11351428009925
 20
13.97090742033177
 30
0.0
 11
15.11351428009928
 21
14.00117103857289
 31
0.0
  0
LINE
  5
933
330
1F
100
AcDbEntity
  8
OBJECT1
100
AcDbLine
 10
15.62752571883552
 20
14.01426063495111
 30
0.0
 11
15.12170353097951
 21
14.01424833525695
 31
0.0
  0
LINE
  5
934
330
1F
100
AcDbEntity
  8
OBJECT1
100
AcDbLine
 10
15.10139519129538
 20
13.9708999209981
 30
0.0
 11
15.11351428009925
 21
13.97090742033177
 31
0.0
  0
LINE
  5
935
330
1F
100
AcDbEntity
  8
OBJECT1
100
AcDbLine
 10
14.99936156728407
 20
13.82787798021584
 30
0.0
 11
15.07017678896934
 21
13.98119375348832
 31
0.0
  0
ARC
  5
936
330
1F
100
AcDbEntity
  8
OBJECT1
100
AcDbCircle
 10
15.10139774500766
 20
13.96677306554548
 30
0.0
 40
0.0343904686896341
100
AcDbArc
 50
90.03545482016882
 51
155.208195711807
  0
ARC
  5
937
330
1F
100
AcDbEntity
  8
OBJECT1
100
AcDbCircle
 10
15.12163342272279
 20
14.00611085759985
 30
0.0
 40
0.0081378876469131
100
AcDbArc
 50
89.50722500000033
 51
180.3193360000003
  0
LINE
  5
938
330
1F
100
AcDbEntity
  8
OBJECT1
100
AcDbLine
 10
15.10137646407187
 20
14.00116352765073
 30
0.0
 11
15.11351428009928
 21
14.00117103857289
 31
0.0
  0
ARC
  5
939
330
1F
100
AcDbEntity
  8
OBJECT1
100
AcDbCircle
 10
15.10139774500766
 20
13.96677306554548
 30
0.0
 40
0.0041268562427561
100
AcDbArc
 50
90.03545482016882
 51
155.208195711807
  0
LINE
  5
93A
330
1F
100
AcDbEntity
  8
OBJECT2
100
AcDbLine
 10
14.86556766274119
 20
13.8735528054274
 30
0.0
 11
14.81952854191897
 21
13.87944603884702
 31
0.0
  0
LINE
  5
93B
330
1F
100
AcDbEntity
  8
OBJECT2
100
AcDbLine
 10
14.75312098681581
 20
13.87944603884702
 30
0.0
 11
14.88601100580285
 21
13.8794181015559
 31
0.0
  0
LINE
  5
93C
330
1F
100
AcDbEntity
  8
OBJECT2
100
AcDbLine
 10
14.75304607803511
 20
13.87943682875103
 30
0.0
 11
14.77352687548707
 21
13.87356232252662
 31
0.0
  0
LINE
  5
93D
330
1F
100
AcDbEntity
  8
OBJECT2
100
AcDbLine
 10
14.73357747013221
 20
13.87410571818989
 30
0.0
 11
14.75304607803511
 21
13.87943682875103
 31
0.0
  0
LINE
  5
93E
330
1F
100
AcDbEntity
  8
OBJECT2
100
AcDbLine
 10
14.81952854191897
 20
13.87944603884702
 30
0.0
 11
14.77352687548707
 21
13.87356232252662
 31
0.0
  0
LINE
  5
93F
330
1F
100
AcDbEntity
  8
OBJECT2
100
AcDbLine
 10
14.77352743802813
 20
13.84625628186992
 30
0.0
 11
14.77352687548707
 21
13.87356232252662
 31
0.0
  0
LINE
  5
940
330
1F
100
AcDbEntity
  8
OBJECT2
100
AcDbLine
 10
14.88601100580285
 20
13.8794181015559
 30
0.0
 11
14.86556766274119
 21
13.8735528054274
 31
0.0
  0
LINE
  5
941
330
1F
100
AcDbEntity
  8
OBJECT2
100
AcDbLine
 10
14.90551706809609
 20
13.87412444538509
 30
0.0
 11
14.88601100580285
 21
13.8794181015559
 31
0.0
  0
LINE
  5
942
330
1F
100
AcDbEntity
  8
OBJECT2
100
AcDbLine
 10
14.86558695247742
 20
13.84625628186992
 30
0.0
 11
14.86556766274119
 21
13.8735528054274
 31
0.0
  0
LINE
  5
943
330
1F
100
AcDbEntity
  8
OBJECT1
100
AcDbLine
 10
15.6288516258661
 20
13.95868282692416
 30
0.0
 11
15.12170353097951
 21
13.95867052722994
 31
0.0
  0
LINE
  5
944
330
1F
100
AcDbEntity
  8
OBJECT1
100
AcDbLine
 10
15.63705962176973
 20
14.00606534873148
 30
0.0
 11
15.63703461239163
 21
13.96689082282776
 31
0.0
  0
ARC
  5
945
330
1F
100
AcDbEntity
  8
OBJECT1
100
AcDbCircle
 10
15.62890000466313
 20
14.00608953813
 30
0.0
 40
0.0081587971269873
100
AcDbArc
 50
359.8297730000003
 51
90.51484699999845
  0
ARC
  5
946
330
1F
100
AcDbEntity
  8
OBJECT1
100
AcDbCircle
 10
15.62883235634527
 20
13.96688590295011
 30
0.0
 40
0.0082030760259679
100
AcDbArc
 50
270.1351929999961
 51
0.0327760000003201
  0
ARC
  5
947
330
1F
100
AcDbEntity
  8
OBJECT1
100
AcDbCircle
 10
15.12171911059209
 20
13.96689369275643
 30
0.0
 40
0.0082235755162367
100
AcDbArc
 50
180.1089629999972
 51
269.8910220000001
  0
LINE
  5
948
330
1F
100
AcDbEntity
  8
OBJECT1
100
AcDbLine
 10
15.11349556141419
 20
13.97090740874856
 30
0.0
 11
15.11349554994697
 21
13.96687805347326
 31
0.0
  0
ELLIPSE
  5
949
330
1F
100
AcDbEntity
  8
OBJECT1
100
AcDbEllipse
 10
13.8985832528422
 20
13.87303753733729
 30
0.0
 11
-0.064072876303206
 21
0.0
 31
0.0
210
0.0
220
0.0
230
1.0
 40
0.567607403318576
 41
0.0
 42
6.283185307179586
  0
LINE
  5
94A
330
1F
100
AcDbEntity
  8
OBJECT1
100
AcDbLine
 10
12.57239301679573
 20
13.88560703457417
 30
0.0
 11
12.80900891369904
 21
13.88560703457417
 31
0.0
  0
LINE
  5
94B
330
1F
100
AcDbEntity
  8
OBJECT1
100
AcDbLine
 10
12.57239301679573
 20
13.88560703457417
 30
0.0
 11
12.57239301679573
 21
14.65658737000458
 31
0.0
  0
LINE
  5
94C
330
1F
100
AcDbEntity
  8
OBJECT1
100
AcDbLine
 10
16.4912251518609
 20
14.38713653879827
 30
0.0
 11
16.37965568782138
 21
14.27556657944816
 31
0.0
  0
LINE
  5
94D
330
1F
100
AcDbEntity
  8
OBJECT2
100
AcDbLine
 10
16.60366190482645
 20
14.02060493353778
 30
0.0
 11
16.34869902063945
 21
14.27556633179287
 31
0.0
  0
LINE
  5
94E
330
1F
100
AcDbEntity
  8
OBJECT2
100
AcDbLine
 10
16.6187057271608
 20
14.2906108970931
 30
0.0
 11
16.4761805865607
 21
14.14808575649303
 31
0.0
  0
ARC
  5
94F
330
1F
100
AcDbEntity
  8
OBJECT1
100
AcDbCircle
 10
16.36417723040278
 20
14.29104850404129
 30
0.0
 40
0.0218926463061348
100
AcDbArc
 50
225.0074160000006
 51
314.9930109999982
  0
ARC
  5
950
330
1F
100
AcDbEntity
  8
OBJECT1
100
AcDbCircle
 10
16.50670336162423
 20
14.37165535717125
 30
0.0
 40
0.0218915955936033
100
AcDbArc
 50
45.00065599999906
 51
134.9947550000023
  0
ARC
  5
951
330
1F
100
AcDbEntity
  8
OBJECT1
100
AcDbCircle
 10
16.61914135286639
 20
14.0360833909564
 30
0.0
 40
0.0218905448810718
100
AcDbArc
 50
135.0052490000036
 51
224.9978029999986
  0
ARC
  5
952
330
1F
100
AcDbEntity
  8
OBJECT1
100
AcDbCircle
 10
16.74736192225859
 20
13.8459475059578
 30
0.0
 40
0.0218905448810718
100
AcDbArc
 50
315.0017550000039
 51
44.99825299999881
  0
ARC
  5
953
330
1F
100
AcDbEntity
  8
OBJECT1
100
AcDbCircle
 10
16.69974672006441
 20
14.17860853155653
 30
0.0
 40
0.0218929965436453
100
AcDbArc
 50
315.0122380000047
 51
44.99213400000012
  0
LINE
  5
954
330
1F
100
AcDbEntity
  8
OBJECT1
100
AcDbLine
 10
16.76284112264315
 20
13.86142571572108
 30
0.0
 11
16.60366190482645
 21
14.02060493353778
 31
0.0
  0
LINE
  5
955
330
1F
100
AcDbEntity
  8
OBJECT1
100
AcDbLine
 10
16.71523062590011
 20
14.16313106475925
 30
0.0
 11
16.60366116186057
 21
14.05156110540909
 31
0.0
  0
LINE
  5
956
330
1F
100
AcDbEntity
  8
OBJECT1
100
AcDbLine
 10
16.52218330497476
 20
14.38713530052174
 30
0.0
 11
16.71522938762342
 21
14.19408723663051
 31
0.0
  0
ARC
  5
957
330
1F
100
AcDbEntity
  8
OBJECT1
100
AcDbCircle
 10
17.69607186958023
 20
13.96677306554548
 30
0.0
 40
0.0343904686896341
100
AcDbArc
 50
24.79180428819294
 51
89.96454517982463
  0
LINE
  5
958
330
1F
100
AcDbEntity
  8
OBJECT1
100
AcDbLine
 10
17.79810804730385
 20
13.82787798021584
 30
0.0
 11
17.72729282561857
 21
13.98119375348832
 31
0.0
  0
ARC
  5
959
330
1F
100
AcDbEntity
  8
OBJECT1
100
AcDbCircle
 10
17.6758361918651
 20
14.00611085759985
 30
0.0
 40
0.0081378876469131
100
AcDbArc
 50
359.6806639999996
 51
90.49277499999965
  0
LINE
  5
95A
330
1F
100
AcDbEntity
  8
OBJECT1
100
AcDbLine
 10
17.69609315051602
 20
14.00116352765073
 30
0.0
 11
17.68395533448864
 21
14.00117103857289
 31
0.0
  0
LINE
  5
95B
330
1F
100
AcDbEntity
  8
OBJECT1
100
AcDbLine
 10
17.69607442329251
 20
13.9708999209981
 30
0.0
 11
17.68395533448864
 21
13.97090742033177
 31
0.0
  0
ARC
  5
95C
330
1F
100
AcDbEntity
  8
OBJECT1
100
AcDbCircle
 10
17.6757505039958
 20
13.96689369275643
 30
0.0
 40
0.0082235755162367
100
AcDbArc
 50
270.1089779999997
 51
359.8910370000027
  0
ARC
  5
95D
330
1F
100
AcDbEntity
  8
OBJECT1
100
AcDbCircle
 10
17.69607186958023
 20
13.96677306554548
 30
0.0
 40
0.0041268562427561
100
AcDbArc
 50
24.79180428819294
 51
89.96454517982463
  0
LINE
  5
95E
330
1F
100
AcDbEntity
  8
OBJECT1
100
AcDbLine
 10
17.68397405317372
 20
13.97090740874856
 30
0.0
 11
17.68397406464092
 21
13.96687805347326
 31
0.0
  0
LINE
  5
95F
330
1F
100
AcDbEntity
  8
OBJECT1
100
AcDbLine
 10
17.68395533448864
 20
13.97090742033177
 30
0.0
 11
17.68395533448864
 21
14.00117103857289
 31
0.0
  0
LINE
  5
960
330
1F
100
AcDbEntity
  8
OBJECT2
100
AcDbLine
 10
17.97794107266895
 20
13.87944603884702
 30
0.0
 11
18.02394273910081
 21
13.87356232252662
 31
0.0
  0
LINE
  5
961
330
1F
100
AcDbEntity
  8
OBJECT2
  6
CONTINUOUS
100
AcDbLine
 10
18.04434862777211
 20
13.87944603884702
 30
0.0
 11
17.91145860878506
 21
13.8794181015559
 31
0.0
  0
LINE
  5
962
330
1F
100
AcDbEntity
  8
OBJECT2
  6
CONTINUOUS
100
AcDbLine
 10
17.89195254649183
 20
13.87412444538509
 30
0.0
 11
17.91145860878506
 21
13.8794181015559
 31
0.0
  0
LINE
  5
963
330
1F
100
AcDbEntity
  8
OBJECT2
100
AcDbLine
 10
17.91145860878506
 20
13.8794181015559
 30
0.0
 11
17.93190195184669
 21
13.87355280542746
 31
0.0
  0
LINE
  5
964
330
1F
100
AcDbEntity
  8
OBJECT2
100
AcDbLine
 10
17.93188266211046
 20
13.84625628186992
 30
0.0
 11
17.93190195184669
 21
13.87355280542746
 31
0.0
  0
LINE
  5
965
330
1F
100
AcDbEntity
  8
OBJECT2
100
AcDbLine
 10
17.93190195184669
 20
13.87355280542746
 30
0.0
 11
17.97794107266895
 21
13.87944603884702
 31
0.0
  0
LINE
  5
966
330
1F
100
AcDbEntity
  8
OBJECT2
  6
CONTINUOUS
100
AcDbLine
 10
18.0638921444557
 20
13.87410571818989
 30
0.0
 11
18.04442353655281
 21
13.87943682875103
 31
0.0
  0
LINE
  5
967
330
1F
100
AcDbEntity
  8
OBJECT2
100
AcDbLine
 10
18.04442353655281
 20
13.87943682875103
 30
0.0
 11
18.02394273910081
 21
13.87356232252662
 31
0.0
  0
LINE
  5
968
330
1F
100
AcDbEntity
  8
OBJECT2
100
AcDbLine
 10
18.02394217655975
 20
13.84625628186992
 30
0.0
 11
18.02394273910081
 21
13.87356232252662
 31
0.0
  0
ARC
  5
969
330
1F
100
AcDbEntity
  8
OBJECT1
100
AcDbCircle
 10
17.13574284204062
 20
14.00608953813
 30
0.0
 40
0.0081587971269873
100
AcDbArc
 50
89.48515300000158
 51
180.1702269999996
  0
ARC
  5
96A
330
1F
100
AcDbEntity
  8
OBJECT1
100
AcDbCircle
 10
17.13581049035849
 20
13.96688590295011
 30
0.0
 40
0.0082030760259679
100
AcDbArc
 50
179.9672239999996
 51
269.8648070000038
  0
LINE
  5
96B
330
1F
100
AcDbEntity
  8
OBJECT1
100
AcDbLine
 10
17.12758322493402
 20
14.00606534873148
 30
0.0
 11
17.12760823431216
 21
13.96689082282776
 31
0.0
  0
LINE
  5
96C
330
1F
100
AcDbEntity
  8
OBJECT1
100
AcDbLine
 10
17.13711712786826
 20
14.01426063495111
 30
0.0
 11
17.6757660836084
 21
14.01424833525695
 31
0.0
  0
LINE
  5
96D
330
1F
100
AcDbEntity
  8
OBJECT1
100
AcDbLine
 10
17.13579122083766
 20
13.95868282692416
 30
0.0
 11
17.6757660836084
 21
13.95867052722999
 31
0.0
  0
SOLID
  5
A0B
330
1F
100
AcDbEntity
  8
0
100
AcDbTrace
 10
14.05810854272894
 20
14.25448972532107
 30
0.0
 11
14.1614046726947
 21
14.1840986070312
 31
0.0
 12
13.8985832528422
 22
13.9094057762789
 32
0.0
 13
13.8985832528422
 23
13.9094057762789
 33
0.0
  0
LINE
  5
A0C
330
1F
100
AcDbEntity
  8
0
100
AcDbLine
 10
13.91618103241469
 20
13.93522980877035
 30
0.0
 11
16.66169024140433
 21
17.98644072132523
 31
0.0
  0
SOLID
  5
A0D
330
1F
100
AcDbEntity
  8
0
100
AcDbTrace
 10
16.33356490645724
 20
14.78624085345248
 30
0.0
 11
16.436861036423
 21
14.71584973516261
 31
0.0
 12
16.1740396165705
 22
14.44115690441032
 32
0.0
 13
16.1740396165705
 23
14.44115690441032
 33
0.0
  0
LINE
  5
A0E
330
1F
100
AcDbEntity
  8
0
100
AcDbLine
 10
16.191637396143
 20
14.46698093690176
 30
0.0
 11
17.75127487112766
 21
16.82533424704479
 31
0.0
  0
SOLID
  5
A0F
330
1F
100
AcDbEntity
  8
0
100
AcDbTrace
 10
18.71398915099297
 20
14.08493358295635
 30
0.0
 11
18.81728528095872
 21
14.01454246466648
 31
0.0
 12
18.55446386110623
 22
13.73984963391419
 32
0.0
 13
18.55446386110623
 23
13.73984963391419
 33
0.0
  0
LINE
  5
A10
330
1F
100
AcDbEntity
  8
0
100
AcDbLine
 10
18.57206164067872
 20
13.76567366640563
 30
0.0
 11
19.82111365754155
 21
15.58795537255186
 31
0.0
  0
SOLID
  5
A11
330
1F
100
AcDbEntity
  8
0
100
AcDbTrace
 10
20.98815791534931
 20
13.80313107213156
 30
0.0
 11
21.09145404531507
 21
13.73273995384169
 31
0.0
 12
20.82863262546257
 22
13.45804712308939
 32
0.0
 13
20.82863262546257
 23
13.45804712308939
 33
0.0
  0
LINE
  5
A12
330
1F
100
AcDbEntity
  8
0
100
AcDbLine
 10
20.84623040503507
 20
13.48387115558083
 30
0.0
 11
21.502346582739
 21
14.43150974365497
 31
0.0
  0
LINE
  5
A14
330
1F
100
AcDbEntity
  8
0
100
AcDbLine
 10
17.35507626595143
 20
17.98644072132523
 30
0.0
 11
16.66169024140433
 21
17.98644072132523
 31
0.0
  0
LINE
  5
A15
330
1F
100
AcDbEntity
  8
0
100
AcDbLine
 10
18.44466089567477
 20
16.82533424704479
 30
0.0
 11
17.75127487112766
 21
16.82533424704479
 31
0.0
  0
LINE
  5
A16
330
1F
100
AcDbEntity
  8
0
100
AcDbLine
 10
20.51449968208867
 20
15.58795537255186
 30
0.0
 11
19.82111365754155
 21
15.58795537255186
 31
0.0
  0
LINE
  5
A17
330
1F
100
AcDbEntity
  8
0
100
AcDbLine
 10
22.19573260728612
 20
14.43150974365497
 30
0.0
 11
21.502346582739
 21
14.43150974365497
 31
0.0
  0
TEXT
  5
A18
330
1F
100
AcDbEntity
  8
OBJECT1
100
AcDbText
 10
17.474729341268
 20
17.74773107680494
 30
0.0
 40
0.375
  1
2 1/2" FNSFHT (SWIVEL TYPE)
  7
ROMANS
100
AcDbText
  0
TEXT
  5
A19
330
1F
100
AcDbEntity
  8
OBJECT1
100
AcDbText
 10
18.4911908355133
 20
16.6473736480514
 30
0.0
 40
0.375
  1
2" 975XL
  7
ROMANS
100
AcDbText
  0
TEXT
  5
A1A
330
1F
100
AcDbEntity
  8
OBJECT1
100
AcDbText
 10
20.5805839781734
 20
15.40594469903786
 30
0.0
 40
0.375
  1
2 1/2" MNSFHT
  7
ROMANS
100
AcDbText
  0
TEXT
  5
A1B
330
1F
100
AcDbEntity
  8
OBJECT1
100
AcDbText
 10
22.24645141005989
 20
14.22094435172122
 30
0.0
 40
0.375
  1
FIRE HOSE
  7
ROMANS
100
AcDbText
  0
LINE
  5
A1C
330
1F
100
AcDbEntity
  8
0
100
AcDbLine
 10
10.9589193249421
 20
15.71223097014481
 30
0.0
 11
10.22764278329463
 21
16.78534983118987
 31
0.0
  0
SOLID
  5
A1D
330
1F
100
AcDbEntity
  8
0
100
AcDbTrace
 10
10.81699181462785
 20
16.03149088669553
 30
0.0
 11
10.71369568466209
 21
15.96109976840566
 31
0.0
 12
10.9765171045146
 22
15.68640693765337
 32
0.0
 13
10.9765171045146
 23
15.68640693765337
 33
0.0
  0
TEXT
  5
A1F
330
1F
100
AcDbEntity
  8
0
100
AcDbText
 10
6.769202955910728
 20
16.57290900644557
 30
0.0
 40
0.375
  1
HYDRANT
  7
ROMANS
100
AcDbText
  0
LINE
  5
A20
330
1F
100
AcDbEntity
  8
0
100
AcDbLine
 10
10.22764278329463
 20
16.78534983118987
 30
0.0
 11
9.444091020049185
 21
16.78534983118987
 31
0.0
  0
ENDSEC
  0
SECTION
  2
OBJECTS
  0
DICTIONARY
  5
C
330
0
100
AcDbDictionary
  3
ACAD_GROUP
350
D
  3
ACAD_LAYOUT
350
1A
  3
ACAD_MLINESTYLE
350
17
  3
ACAD_PLOTSETTINGS
350
19
  3
ACAD_PLOTSTYLENAME
350
E
  3
ACDBHEADERROUNDTRIPXREC
350
D6D
  3
ACDBVARIABLEDICTIONARY
350
178
  0
DICTIONARY
  5
D8F
330
1F
100
AcDbDictionary
280
     1
  3
ACAD_LAYOUTSELFREF
360
D90
  0
DICTIONARY
  5
D8D
330
1B
100
AcDbDictionary
280
     1
  3
ACAD_LAYOUTSELFREF
360
D8E
  0
DICTIONARY
  5
D
102
{ACAD_REACTORS
330
C
102
}
330
C
100
AcDbDictionary
  0
DICTIONARY
  5
1A
102
{ACAD_REACTORS
330
C
102
}
330
C
100
AcDbDictionary
  0
DICTIONARY
  5
17
102
{ACAD_REACTORS
330
C
102
}
330
C
100
AcDbDictionary
  3
STANDARD
350
18
  0
DICTIONARY
  5
19
102
{ACAD_REACTORS
330
C
102
}
330
C
100
AcDbDictionary
  0
ACDBDICTIONARYWDFLT
  5
E
102
{ACAD_REACTORS
330
C
102
}
330
C
100
AcDbDictionary
281
     1
  3
Normal
350
F
100
AcDbDictionaryWithDefault
340
F
  0
DICTIONARY
  5
D6D
102
{ACAD_REACTORS
330
C
102
}
330
C
100
AcDbDictionary
  3
CEPSNTYPE
350
D77
  3
FINGERPRINTGUID
350
D78
  3
HYPERLINKBASE
350
D70
  3
INSUNITS
350
D76
  3
LAYOUTDICT
350
D72
  3
LWETCUNION
350
D75
  3
PLOTSETDICT
350
D73
  3
PLOTSTYLNAMDICT
350
D74
  3
PSVPSCALE
350
D7A
  3
PUCSBASE
350
D7D
  3
PUCSORGBACK
350
D83
  3
PUCSORGBOTTOM
350
D7F
  3
PUCSORGFRONT
350
D82
  3
PUCSORGLEFT
350
D80
  3
PUCSORGRIGHT
350
D81
  3
PUCSORGTOP
350
D7E
  3
PUCSORTHOREF
350
D7B
  3
PUCSORTHOVIEW
350
D7C
  3
STYLESHEET
350
D71
  3
TSTACKALIGN
350
D6E
  3
TSTACKSIZE
350
D6F
  3
UCSBASE
350
D86
  3
UCSORGBACK
350
D8C
  3
UCSORGBOTTOM
350
D88
  3
UCSORGFRONT
350
D8B
  3
UCSORGLEFT
350
D89
  3
UCSORGRIGHT
350
D8A
  3
UCSORGTOP
350
D87
  3
UCSORTHOREF
350
D84
  3
UCSORTHOVIEW
350
D85
  3
VERSIONGUID
350
D79
  0
DICTIONARY
  5
178
102
{ACAD_REACTORS
330
C
102
}
330
C
100
AcDbDictionary
  3
DIMASSOC
350
96F
  3
SORTENTS
350
179
  0
XRECORD
  5
D90
102
{ACAD_REACTORS
330
D8F
102
}
330
D8F
100
AcDbXrecord
340
1F
  0
XRECORD
  5
D8E
102
{ACAD_REACTORS
330
D8D
102
}
330
D8D
100
AcDbXrecord
340
1B
  0
MLINESTYLE
  5
18
102
{ACAD_REACTORS
330
17
102
}
330
17
100
AcDbMlineStyle
  2
STANDARD
 70
     0
  3

 62
   256
 51
90.0
 52
90.0
 71
     2
 49
0.5
 62
   256
  6
BYLAYER
 49
-0.5
 62
   256
  6
BYLAYER
  0
ACDBPLACEHOLDER
  5
F
102
{ACAD_REACTORS
330
E
102
}
330
E
100
AcDbPlaceHolder
280
     0
  0
XRECORD
  5
D77
102
{ACAD_REACTORS
330
D6D
102
}
330
D6D
100
AcDbXrecord
 90
        0
  0
XRECORD
  5
D78
102
{ACAD_REACTORS
330
D6D
102
}
330
D6D
100
AcDbXrecord
  1
{FDEAD576-A652-11D2-9A35-0060089B3A3F}
  0
XRECORD
  5
D70
102
{ACAD_REACTORS
330
D6D
102
}
330
D6D
100
AcDbXrecord
  1

  0
XRECORD
  5
D76
102
{ACAD_REACTORS
330
D6D
102
}
330
D6D
100
AcDbXrecord
 90
        1
  0
XRECORD
  5
D72
102
{ACAD_REACTORS
330
D6D
102
}
330
D6D
100
AcDbXrecord
340
1A
  0
XRECORD
  5
D75
102
{ACAD_REACTORS
330
D6D
102
}
330
D6D
100
AcDbXrecord
 90
    11805
  0
XRECORD
  5
D73
102
{ACAD_REACTORS
330
D6D
102
}
330
D6D
100
AcDbXrecord
340
19
  0
XRECORD
  5
D74
102
{ACAD_REACTORS
330
D6D
102
}
330
D6D
100
AcDbXrecord
340
E
  0
XRECORD
  5
D7A
102
{ACAD_REACTORS
330
D6D
102
}
330
D6D
100
AcDbXrecord
 40
0.0
  0
XRECORD
  5
D7D
102
{ACAD_REACTORS
330
D6D
102
}
330
D6D
100
AcDbXrecord
340
0
  0
XRECORD
  5
D83
102
{ACAD_REACTORS
330
D6D
102
}
330
D6D
100
AcDbXrecord
 10
0.0
 20
0.0
 30
0.0
  0
XRECORD
  5
D7F
102
{ACAD_REACTORS
330
D6D
102
}
330
D6D
100
AcDbXrecord
 10
0.0
 20
0.0
 30
0.0
  0
XRECORD
  5
D82
102
{ACAD_REACTORS
330
D6D
102
}
330
D6D
100
AcDbXrecord
 10
0.0
 20
0.0
 30
0.0
  0
XRECORD
  5
D80
102
{ACAD_REACTORS
330
D6D
102
}
330
D6D
100
AcDbXrecord
 10
0.0
 20
0.0
 30
0.0
  0
XRECORD
  5
D81
102
{ACAD_REACTORS
330
D6D
102
}
330
D6D
100
AcDbXrecord
 10
0.0
 20
0.0
 30
0.0
  0
XRECORD
  5
D7E
102
{ACAD_REACTORS
330
D6D
102
}
330
D6D
100
AcDbXrecord
 10
0.0
 20
0.0
 30
0.0
  0
XRECORD
  5
D7B
102
{ACAD_REACTORS
330
D6D
102
}
330
D6D
100
AcDbXrecord
340
0
  0
XRECORD
  5
D7C
102
{ACAD_REACTORS
330
D6D
102
}
330
D6D
100
AcDbXrecord
 70
     0
  0
XRECORD
  5
D71
102
{ACAD_REACTORS
330
D6D
102
}
330
D6D
100
AcDbXrecord
  1
WILKINS.ctb
  0
XRECORD
  5
D6E
102
{ACAD_REACTORS
330
D6D
102
}
330
D6D
100
AcDbXrecord
 90
        1
  0
XRECORD
  5
D6F
102
{ACAD_REACTORS
330
D6D
102
}
330
D6D
100
AcDbXrecord
 90
       70
  0
XRECORD
  5
D86
102
{ACAD_REACTORS
330
D6D
102
}
330
D6D
100
AcDbXrecord
340
0
  0
XRECORD
  5
D8C
102
{ACAD_REACTORS
330
D6D
102
}
330
D6D
100
AcDbXrecord
 10
0.0
 20
0.0
 30
0.0
  0
XRECORD
  5
D88
102
{ACAD_REACTORS
330
D6D
102
}
330
D6D
100
AcDbXrecord
 10
0.0
 20
0.0
 30
0.0
  0
XRECORD
  5
D8B
102
{ACAD_REACTORS
330
D6D
102
}
330
D6D
100
AcDbXrecord
 10
0.0
 20
0.0
 30
0.0
  0
XRECORD
  5
D89
102
{ACAD_REACTORS
330
D6D
102
}
330
D6D
100
AcDbXrecord
 10
0.0
 20
0.0
 30
0.0
  0
XRECORD
  5
D8A
102
{ACAD_REACTORS
330
D6D
102
}
330
D6D
100
AcDbXrecord
 10
0.0
 20
0.0
 30
0.0
  0
XRECORD
  5
D87
102
{ACAD_REACTORS
330
D6D
102
}
330
D6D
100
AcDbXrecord
 10
0.0
 20
0.0
 30
0.0
  0
XRECORD
  5
D84
102
{ACAD_REACTORS
330
D6D
102
}
330
D6D
100
AcDbXrecord
340
0
  0
XRECORD
  5
D85
102
{ACAD_REACTORS
330
D6D
102
}
330
D6D
100
AcDbXrecord
 70
     0
  0
XRECORD
  5
D79
102
{ACAD_REACTORS
330
D6D
102
}
330
D6D
100
AcDbXrecord
  1
{BBA7261E-4DA6-4A5E-9243-98F04547C696}
  0
DICTIONARYVAR
  5
96F
102
{ACAD_REACTORS
330
178
102
}
330
178
100
DictionaryVariables
280
     0
  1
1
  0
DICTIONARYVAR
  5
179
102
{ACAD_REACTORS
330
178
102
}
330
178
100
DictionaryVariables
280
     0
  1
96
  0
ENDSEC
  0
EOF
