  0
SECTION
  2
HEADER
  9
$ACADVER
  1
AC1014
  9
$ACADMAINTVER
 70
     9
  9
$DWGCODEPAGE
  3
ANSI_1252
  9
$INSBASE
 10
0.0
 20
0.0
 30
0.0
  9
$EXTMIN
 10
5.288612445221062
 20
5.89792485998236
 30
-0.0000000349181948
  9
$EXTMAX
 10
29.47982032245469
 20
14.18955082198319
 30
0.0000000814935746
  9
$LIMMIN
 10
0.0
 20
0.0
  9
$LIMMAX
 10
31.5
 20
20.8
  9
$ORTHOMODE
 70
     0
  9
$REGENMODE
 70
     1
  9
$FILLMODE
 70
     1
  9
$QTEXTMODE
 70
     0
  9
$MIRRTEXT
 70
     0
  9
$DRAGMODE
 70
     2
  9
$LTSCALE
 40
1.0
  9
$OSMODE
 70
    37
  9
$ATTMODE
 70
     1
  9
$TEXTSIZE
 40
0.125
  9
$TRACEWID
 40
0.05
  9
$TEXTSTYLE
  7
ROMANS
  9
$CLAYER
  8
0
  9
$CELTYPE
  6
BYLAYER
  9
$CECOLOR
 62
   256
  9
$CELTSCALE
 40
1.0
  9
$DELOBJ
 70
     1
  9
$DISPSILH
 70
     0
  9
$DIMSCALE
 40
1.0
  9
$DIMASZ
 40
0.125
  9
$DIMEXO
 40
0.0625
  9
$DIMDLI
 40
0.38
  9
$DIMRND
 40
0.0
  9
$DIMDLE
 40
0.0
  9
$DIMEXE
 40
0.09
  9
$DIMTP
 40
0.0
  9
$DIMTM
 40
0.0
  9
$DIMTXT
 40
0.125
  9
$DIMCEN
 40
0.04
  9
$DIMTSZ
 40
0.0
  9
$DIMTOL
 70
     0
  9
$DIMLIM
 70
     0
  9
$DIMTIH
 70
     1
  9
$DIMTOH
 70
     1
  9
$DIMSE1
 70
     0
  9
$DIMSE2
 70
     0
  9
$DIMTAD
 70
     0
  9
$DIMZIN
 70
     0
  9
$DIMBLK
  1

  9
$DIMASO
 70
     1
  9
$DIMSHO
 70
     1
  9
$DIMPOST
  1

  9
$DIMAPOST
  1

  9
$DIMALT
 70
     0
  9
$DIMALTD
 70
     2
  9
$DIMALTF
 40
25.4
  9
$DIMLFAC
 40
1.0
  9
$DIMTOFL
 70
     0
  9
$DIMTVP
 40
0.0
  9
$DIMTIX
 70
     0
  9
$DIMSOXD
 70
     0
  9
$DIMSAH
 70
     0
  9
$DIMBLK1
  1

  9
$DIMBLK2
  1

  9
$DIMSTYLE
  2
STANDARD
  9
$DIMCLRD
 70
   256
  9
$DIMCLRE
 70
   256
  9
$DIMCLRT
 70
     3
  9
$DIMTFAC
 40
1.0
  9
$DIMGAP
 40
0.09
  9
$DIMJUST
 70
     0
  9
$DIMSD1
 70
     0
  9
$DIMSD2
 70
     0
  9
$DIMTOLJ
 70
     1
  9
$DIMTZIN
 70
     0
  9
$DIMALTZ
 70
     0
  9
$DIMALTTZ
 70
     0
  9
$DIMFIT
 70
     3
  9
$DIMUPT
 70
     1
  9
$DIMUNIT
 70
     2
  9
$DIMDEC
 70
     3
  9
$DIMTDEC
 70
     3
  9
$DIMALTU
 70
     2
  9
$DIMALTTD
 70
     2
  9
$DIMTXSTY
  7
STANDARD
  9
$DIMAUNIT
 70
     0
  9
$LUNITS
 70
     2
  9
$LUPREC
 70
     3
  9
$SKETCHINC
 40
0.05
  9
$FILLETRAD
 40
0.125
  9
$AUNITS
 70
     0
  9
$AUPREC
 70
     0
  9
$MENU
  1
.
  9
$ELEVATION
 40
0.0
  9
$PELEVATION
 40
0.0
  9
$THICKNESS
 40
0.0
  9
$LIMCHECK
 70
     0
  9
$BLIPMODE
 70
     0
  9
$CHAMFERA
 40
0.5
  9
$CHAMFERB
 40
0.5
  9
$CHAMFERC
 40
1.0
  9
$CHAMFERD
 40
0.0
  9
$SKPOLY
 70
     0
  9
$TDCREATE
 40
2452464.696235880
  9
$TDUPDATE
 40
2452509.680662546
  9
$TDINDWG
 40
0.0159638079
  9
$TDUSRTIMER
 40
0.0159638079
  9
$USRTIMER
 70
     1
  9
$ANGBASE
 50
0.0
  9
$ANGDIR
 70
     0
  9
$PDMODE
 70
     0
  9
$PDSIZE
 40
0.0
  9
$PLINEWID
 40
0.0
  9
$COORDS
 70
     0
  9
$SPLFRAME
 70
     0
  9
$SPLINETYPE
 70
     6
  9
$SPLINESEGS
 70
    64
  9
$ATTDIA
 70
     0
  9
$ATTREQ
 70
     1
  9
$HANDLING
 70
 22529
  9
$HANDSEED
  5
27FF
  9
$SURFTAB1
 70
    32
  9
$SURFTAB2
 70
    32
  9
$SURFTYPE
 70
     6
  9
$SURFU
 70
     6
  9
$SURFV
 70
     6
  9
$UCSNAME
  2

  9
$UCSORG
 10
0.0
 20
0.0
 30
0.0
  9
$UCSXDIR
 10
1.0
 20
0.0
 30
0.0
  9
$UCSYDIR
 10
0.0
 20
1.0
 30
0.0
  9
$PUCSNAME
  2

  9
$PUCSORG
 10
0.0
 20
0.0
 30
0.0
  9
$PUCSXDIR
 10
1.0
 20
0.0
 30
0.0
  9
$PUCSYDIR
 10
0.0
 20
1.0
 30
0.0
  9
$USERI1
 70
     0
  9
$USERI2
 70
     0
  9
$USERI3
 70
     0
  9
$USERI4
 70
     0
  9
$USERI5
 70
     0
  9
$USERR1
 40
0.0
  9
$USERR2
 40
0.0
  9
$USERR3
 40
0.0
  9
$USERR4
 40
0.0
  9
$USERR5
 40
0.0
  9
$WORLDVIEW
 70
     1
  9
$SHADEDGE
 70
     3
  9
$SHADEDIF
 70
    70
  9
$TILEMODE
 70
     1
  9
$MAXACTVP
 70
    64
  9
$PINSBASE
 10
0.0
 20
0.0
 30
0.0
  9
$PLIMCHECK
 70
     0
  9
$PEXTMIN
 10
1.000000000000000E+20
 20
1.000000000000000E+20
 30
1.000000000000000E+20
  9
$PEXTMAX
 10
-1.000000000000000E+20
 20
-1.000000000000000E+20
 30
-1.000000000000000E+20
  9
$PLIMMIN
 10
0.0
 20
0.0
  9
$PLIMMAX
 10
12.0
 20
9.0
  9
$UNITMODE
 70
     0
  9
$VISRETAIN
 70
     1
  9
$PLINEGEN
 70
     0
  9
$PSLTSCALE
 70
     1
  9
$TREEDEPTH
 70
  3020
  9
$PICKSTYLE
 70
     1
  9
$CMLSTYLE
  2
STANDARD
  9
$CMLJUST
 70
     0
  9
$CMLSCALE
 40
1.0
  9
$PROXYGRAPHICS
 70
     1
  9
$MEASUREMENT
 70
     0
  0
ENDSEC
  0
SECTION
  2
CLASSES
  0
CLASS
  1
ACDBDICTIONARYWDFLT
  2
AcDbDictionaryWithDefault
  3
AutoCAD 2000
 90
        0
280
     0
281
     0
  0
CLASS
  1
ACDBPLACEHOLDER
  2
AcDbPlaceHolder
  3
AutoCAD 2000
 90
        0
280
     0
281
     0
  0
CLASS
  1
LAYOUT
  2
AcDbLayout
  3
AutoCAD 2000
 90
        0
280
     0
281
     0
  0
CLASS
  1
DICTIONARYVAR
  2
AcDbDictionaryVar
  3
AutoCAD 2000
 90
        0
280
     0
281
     0
  0
CLASS
  1
LONG_TRANSACTION
  2
AcDbLongTransaction
  3
AutoCAD 2000
 90
        0
280
     0
281
     0
  0
CLASS
  1
LWPOLYLINE
  2
AcDbPolyline
  3
AutoCAD 2000
 90
        0
280
     0
281
     1
  0
CLASS
  1
HATCH
  2
AcDbHatch
  3
AutoCAD 2000
 90
        0
280
     0
281
     1
  0
CLASS
  1
XRECORD
  2
AcDbXrecord
  3
AutoCAD 2000
 90
        0
280
     0
281
     0
  0
ENDSEC
  0
SECTION
  2
TABLES
  0
TABLE
  2
VPORT
  5
8
330
0
100
AcDbSymbolTable
 70
     3
  0
VPORT
  5
27D8
330
8
100
AcDbSymbolTableRecord
100
AcDbViewportTableRecord
  2
*ACTIVE
 70
     0
 10
0.0
 20
0.0
 11
1.0
 21
1.0
 12
17.38421638383788
 22
10.04373784098277
 13
0.0
 23
0.0
 14
0.5
 24
0.5
 15
5.0
 25
5.0
 16
0.0
 26
0.0
 36
1.0
 17
0.0
 27
0.0
 37
0.0
 40
13.68993283911743
 41
1.781954887218045
 42
50.0
 43
0.0
 44
0.0
 50
0.0
 51
0.0
 71
     0
 72
 15000
 73
     1
 74
     2
 75
     0
 76
     0
 77
     0
 78
     0
  0
ENDTAB
  0
TABLE
  2
LTYPE
  5
5
330
0
100
AcDbSymbolTable
 70
     3
  0
LTYPE
  5
14
330
5
100
AcDbSymbolTableRecord
100
AcDbLinetypeTableRecord
  2
BYBLOCK
 70
     0
  3

 72
    65
 73
     0
 40
0.0
  0
LTYPE
  5
15
330
5
100
AcDbSymbolTableRecord
100
AcDbLinetypeTableRecord
  2
BYLAYER
 70
     0
  3

 72
    65
 73
     0
 40
0.0
  0
LTYPE
  5
16
330
5
100
AcDbSymbolTableRecord
100
AcDbLinetypeTableRecord
  2
CONTINUOUS
 70
     0
  3
Solid line
 72
    65
 73
     0
 40
0.0
  0
LTYPE
  5
277
330
5
100
AcDbSymbolTableRecord
100
AcDbLinetypeTableRecord
  2
DASHED
 70
     0
  3
__ __ __ __ __ __ __ __ __ __ __ __ __ __ __ __
 72
    65
 73
     2
 40
0.75
 49
0.5
 74
     0
 49
-0.25
 74
     0
  0
ENDTAB
  0
TABLE
  2
LAYER
  5
2
330
0
100
AcDbSymbolTable
 70
    10
  0
LAYER
  5
10
330
2
100
AcDbSymbolTableRecord
100
AcDbLayerTableRecord
  2
0
 70
     0
 62
     7
  6
CONTINUOUS
  0
LAYER
  5
62
330
2
100
AcDbSymbolTableRecord
100
AcDbLayerTableRecord
  2
OBJECT1
 70
     0
 62
     7
  6
CONTINUOUS
  0
LAYER
  5
63
330
2
100
AcDbSymbolTableRecord
100
AcDbLayerTableRecord
  2
OBJECT2
 70
     0
 62
     8
  6
CONTINUOUS
  0
LAYER
  5
65
330
2
100
AcDbSymbolTableRecord
100
AcDbLayerTableRecord
  2
TEXT
 70
     0
 62
     7
  6
CONTINUOUS
  0
ENDTAB
  0
TABLE
  2
STYLE
  5
3
330
0
100
AcDbSymbolTable
 70
     4
  0
STYLE
  5
11
330
3
100
AcDbSymbolTableRecord
100
AcDbTextStyleTableRecord
  2
STANDARD
 70
     0
 40
0.0
 41
1.0
 50
0.0
 71
     0
 42
0.125
  3
romans.shx
  4

  0
STYLE
  5
B3
330
3
100
AcDbSymbolTableRecord
100
AcDbTextStyleTableRecord
  2
ROMANS
 70
     0
 40
0.0
 41
1.0
 50
0.0
 71
     0
 42
0.125
  3
romans.shx
  4

  0
ENDTAB
  0
TABLE
  2
VIEW
  5
6
330
0
100
AcDbSymbolTable
 70
     0
  0
ENDTAB
  0
TABLE
  2
UCS
  5
7
330
0
100
AcDbSymbolTable
 70
     0
  0
ENDTAB
  0
TABLE
  2
APPID
  5
9
330
0
100
AcDbSymbolTable
 70
     1
  0
APPID
  5
12
330
9
100
AcDbSymbolTableRecord
100
AcDbRegAppTableRecord
  2
ACAD
 70
     0
  0
ENDTAB
  0
TABLE
  2
DIMSTYLE
  5
A
330
0
100
AcDbSymbolTable
 70
     4
  0
DIMSTYLE
105
99
330
A
100
AcDbSymbolTableRecord
100
AcDbDimStyleTableRecord
  2
STANDARD
 70
     0
  3

  4

  5

  6

  7

 40
1.0
 41
0.125
 42
0.0625
 43
0.38
 44
0.09
 45
0.0
 46
0.0
 47
0.0
 48
0.0
140
0.125
141
0.04
142
0.0
143
25.4
144
1.0
145
0.0
146
1.0
147
0.09
 71
     0
 72
     0
 73
     1
 74
     1
 75
     0
 76
     0
 77
     0
 78
     0
170
     0
171
     2
172
     0
173
     0
174
     0
175
     0
176
   256
177
   256
178
     3
270
     2
271
     3
272
     3
273
     2
274
     2
340
11
275
     0
280
     0
281
     0
282
     0
283
     1
284
     0
285
     0
286
     0
287
     3
288
     1
  0
ENDTAB
  0
TABLE
  2
BLOCK_RECORD
  5
1
330
0
100
AcDbSymbolTable
 70
     3
  0
BLOCK_RECORD
  5
1F
102
{ACAD_XDICTIONARY
360
27FB
102
}
330
1
100
AcDbSymbolTableRecord
100
AcDbBlockTableRecord
  2
*MODEL_SPACE
  0
BLOCK_RECORD
  5
1B
102
{ACAD_XDICTIONARY
360
27F9
102
}
330
1
100
AcDbSymbolTableRecord
100
AcDbBlockTableRecord
  2
*PAPER_SPACE
  0
BLOCK_RECORD
  5
6B
330
1
100
AcDbSymbolTableRecord
100
AcDbBlockTableRecord
  2
MARKINS
  0
ENDTAB
  0
ENDSEC
  0
SECTION
  2
BLOCKS
  0
BLOCK
  5
20
330
1F
100
AcDbEntity
  8
0
100
AcDbBlockBegin
  2
*MODEL_SPACE
 70
     0
 10
0.0
 20
0.0
 30
0.0
  3
*MODEL_SPACE
  1

  0
ENDBLK
  5
21
330
1F
100
AcDbEntity
  8
0
100
AcDbBlockEnd
  0
BLOCK
  5
1C
330
1B
100
AcDbEntity
 67
     1
  8
0
100
AcDbBlockBegin
  2
*PAPER_SPACE
 70
     0
 10
0.0
 20
0.0
 30
0.0
  3
*PAPER_SPACE
  1

  0
ENDBLK
  5
1D
330
1B
100
AcDbEntity
 67
     1
  8
0
100
AcDbBlockEnd
  0
BLOCK
  5
6C
330
6B
100
AcDbEntity
  8
0
100
AcDbBlockBegin
  2
MARKINS
 70
     0
 10
0.0
 20
0.0
 30
0.0
  3
MARKINS
  1

  0
ENDBLK
  5
6D
330
6B
100
AcDbEntity
  8
0
100
AcDbBlockEnd
  0
ENDSEC
  0
SECTION
  2
ENTITIES
  0
INSERT
  5
6E
330
1F
100
AcDbEntity
  8
0
100
AcDbBlockReference
  2
MARKINS
 10
73.92338813985849
 20
16.54862006013346
 30
0.0
 41
0.25
 42
0.25
 43
0.25
  0
ARC
  5
870
102
{ACAD_REACTORS
330
871
102
}
330
1F
100
AcDbEntity
  8
OBJECT1
100
AcDbCircle
 10
25.48636364171015
 20
9.890720296743229
 30
0.0
 40
3.99253636466922
100
AcDbArc
 50
349.9638467292155
 51
190.0361532707844
  0
HATCH
  5
871
330
1F
100
AcDbEntity
  8
OBJECT2
100
AcDbHatch
 10
0.0
 20
0.0
 30
0.0
210
0.0
220
0.0
230
1.0
  2
AR-CONC
 70
     0
 71
     1
 91
        2
 92
        7
 72
     1
 73
     1
 93
        8
 10
29.41780615933851
 20
9.194942779292393
 42
0.0637268888150702
 10
29.46632161190247
 20
10.20739233325537
 42
0.0
 10
26.21341117438674
 20
10.20739233325537
 42
0.0
 10
26.1182508873395
 20
9.890720296743229
 42
0.0
 10
25.94170616032259
 20
9.89072029674323
 42
0.0
 10
25.94170616032259
 20
9.745849343391231
 42
0.0
 10
25.8092975929794
 20
9.745849343391229
 42
0.0
 10
25.8092975929794
 20
9.194942779292393
 42
0.0
 97
        8
330
B8E
330
C1F
330
C1C
330
C1E
330
C1D
330
B7B
330
B7D
330
870
 92
        7
 72
     1
 73
     1
 93
        8
 10
25.1634296904409
 20
9.194942779292393
 42
0.0
 10
25.1634296904409
 20
9.745849343391231
 42
0.0
 10
25.03102112309771
 20
9.745849343391229
 42
0.0
 10
25.0310211230977
 20
9.890720296743229
 42
0.0
 10
24.8544763960808
 20
9.890720296743229
 42
0.0
 10
24.75931610903349
 20
10.20739233325537
 42
0.0
 10
21.50640567151783
 20
10.20739233325537
 42
0.0637268888150692
 10
21.55492112408178
 20
9.194942779292409
 42
0.0
 97
        8
330
C28
330
C29
330
C2A
330
C2B
330
87C
330
870
330
87D
330
B7C
 75
     0
 76
     1
 52
0.0
 41
0.0703125
 77
     0
 78
    13
 53
50.0
 43
-336.2821493502127
 44
-112.2047314179446
 45
0.5043235658911547
 46
-0.0441225949096372
 79
     2
 49
0.052734375
 49
-0.580078125
 53
355.0
 43
-336.2821493502127
 44
-112.2047314179446
 45
-0.0975595314466406
 46
0.5288850940078209
 79
     2
 49
0.0421875
 49
-0.4640625000000001
 53
100.4513999999999
 43
-336.2401223877127
 44
-112.2084082976321
 45
0.4067644090176714
 46
0.4847621780116081
 79
     2
 49
0.04481732109375
 49
-0.4929905474999997
 53
46.1842
 43
-336.2821493502127
 44
-112.0641064179446
 45
0.7504038623149062
 46
-0.1163805569500909
 79
     2
 49
0.0791015625
 49
-0.8701171875
 53
96.63559999999998
 43
-336.2196157013845
 44
-112.0738048369289
 45
0.6571847148389321
 46
0.6849266279768731
 79
     2
 49
0.06722598375
 49
-0.7394857031249991
 53
351.1842
 43
-336.2821493502127
 44
-112.0641064179446
 45
0.6571841801720816
 46
0.6849271412756189
 79
     2
 49
0.06328125
 49
-0.6960937500000003
 53
21.0
 43
-336.2118368502127
 44
-112.0992626679446
 45
0.4197002710207934
 46
-0.2830914074990663
 79
     2
 49
0.052734375
 49
-0.580078125
 53
326.0
 43
-336.2118368502127
 44
-112.0992626679446
 45
0.1710810927573622
 46
0.5098711254235685
 79
     2
 49
0.0421875
 49
-0.4640625
 53
71.45140000000001
 43
-336.1768618426346
 44
-112.1228536409133
 45
0.5907815357213602
 46
0.2267792554991853
 79
     2
 49
0.04481732109375
 49
-0.4929905474999999
 53
37.49999999999999
 43
-336.2821493502127
 44
-112.2047314179446
 45
0.00854989826997
 46
0.2340659909751409
 79
     6
 49
0.0
 49
-0.4584375000000001
 49
0.0
 49
-0.4710937500000001
 49
0.0
 49
-0.4658203125000001
 53
7.499999999999999
 43
-336.2821493502127
 44
-112.2047314179446
 45
0.1849707685140107
 46
0.2773207349172845
 79
     6
 49
0.0
 49
-0.2685937499999999
 49
0.0
 49
-0.4478906249999998
 49
0.0
 49
-0.1775390624999999
 53
327.4999999999999
 43
-336.4389462252127
 44
-112.2047314179446
 45
0.3753439004337251
 46
-0.0158588941882358
 79
     6
 49
0.0
 49
-0.17578125
 49
0.0
 49
-0.5484375
 49
0.0
 49
-0.727734375
 53
317.5
 43
-336.5092587252127
 44
-112.2047314179446
 45
0.4100527753188654
 46
0.0703863157024109
 79
     6
 49
0.0
 49
-0.228515625
 49
0.0
 49
-0.36421875
 49
0.0
 49
-0.516796875
 47
0.1600341838416114
 98
        2
 10
27.15441479272189
 20
9.62906686703663
 10
23.66346487274299
 20
9.359008969004779
  0
LINE
  5
872
330
1F
100
AcDbEntity
  8
OBJECT2
100
AcDbLine
 10
23.47718796220282
 20
13.21595025390221
 30
0.0
 11
24.75931610903343
 21
13.21595025390221
 31
0.0
  0
LINE
  5
873
330
1F
100
AcDbEntity
  8
OBJECT2
100
AcDbLine
 10
22.83612388878755
 20
12.61423866977285
 30
0.0
 11
24.11825203561816
 21
12.61423866977285
 31
0.0
  0
LINE
  5
874
330
1F
100
AcDbEntity
  8
OBJECT2
100
AcDbLine
 10
23.47718796220289
 20
12.01252708564347
 30
0.0
 11
24.75931610903349
 21
12.01252708564347
 31
0.0
  0
LINE
  5
875
330
1F
100
AcDbEntity
  8
OBJECT2
100
AcDbLine
 10
22.83612388878761
 20
11.41081550151411
 30
0.0
 11
24.11825203561816
 21
11.41081550151411
 31
0.0
  0
LINE
  5
876
330
1F
100
AcDbEntity
  8
OBJECT1
100
AcDbLine
 10
24.32368792417066
 20
12.77497041966627
 30
0.0
 11
23.22969560713714
 21
12.77497209136089
 31
0.0
  0
LINE
  5
877
330
1F
100
AcDbEntity
  8
OBJECT1
100
AcDbLine
 10
24.32368268920888
 20
12.96460785287419
 30
0.0
 11
23.22969405276765
 21
12.96460785287419
 31
0.0
  0
LINE
  5
878
330
1F
100
AcDbEntity
  8
OBJECT1
100
AcDbLine
 10
24.14371001952926
 20
12.41066463063251
 30
0.0
 11
23.51497855528986
 21
12.41066463063249
 31
0.0
  0
LINE
  5
879
330
1F
100
AcDbEntity
  8
OBJECT1
100
AcDbLine
 10
24.1437100195292
 20
12.2210274724429
 30
0.0
 11
23.51497678544625
 21
12.22102843319004
 31
0.0
  0
LINE
  5
87A
330
1F
100
AcDbEntity
  8
OBJECT2
100
AcDbLine
 10
23.47718796220289
 20
10.80910391738474
 30
0.0
 11
24.75931610903349
 21
10.80910391738474
 31
0.0
  0
LINE
  5
87B
330
1F
100
AcDbEntity
  8
OBJECT2
100
AcDbLine
 10
24.75931610903349
 20
10.20739233325537
 30
0.0
 11
23.47718796220289
 21
10.20739233325537
 31
0.0
  0
LINE
  5
87C
102
{ACAD_REACTORS
330
871
102
}
330
1F
100
AcDbEntity
  8
OBJECT1
100
AcDbLine
 10
24.75931610903349
 20
10.20739233325537
 30
0.0
 11
21.50640567151783
 21
10.20739233325537
 31
0.0
  0
LINE
  5
87D
102
{ACAD_REACTORS
330
871
102
}
330
1F
100
AcDbEntity
  8
OBJECT1
100
AcDbLine
 10
21.55492112408179
 20
9.194942779292409
 30
0.0
 11
25.1634296904409
 21
9.194942779292393
 31
0.0
  0
TEXT
  5
87E
330
1F
100
AcDbEntity
  8
TEXT
100
AcDbText
 10
23.27782666985452
 20
8.121534011990856
 30
0.0
 40
0.1898342913680584
  1
DIRECTION OF FLOW
  7
ROMANS
 72
     2
 11
26.16149995301693
 21
8.216451157674885
 31
0.0
100
AcDbText
 73
     2
  0
LINE
  5
87F
330
1F
100
AcDbEntity
  8
OBJECT2
  6
DASHED
100
AcDbLine
 10
16.03291662153515
 20
9.233426848900448
 30
0.0
 11
16.03291662153515
 21
13.4620992085875
 31
0.0
  0
LINE
  5
880
330
1F
100
AcDbEntity
  8
OBJECT2
  6
DASHED
100
AcDbLine
 10
9.851532307266054
 20
13.4620992085875
 30
0.0
 11
9.851532307266054
 21
9.233426848900448
 31
0.0
  0
LINE
  5
881
330
1F
100
AcDbEntity
  8
OBJECT2
100
AcDbLine
 10
22.83612388878761
 20
12.01252708564347
 30
0.0
 11
22.83612388878761
 21
12.61423866977285
 31
0.0
  0
ARC
  5
882
330
1F
100
AcDbEntity
  8
OBJECT1
100
AcDbCircle
 10
12.5389847243588
 20
12.47741714469909
 30
0.0
 40
0.012354034753629
100
AcDbArc
 50
89.91394399999961
 51
180.1101989999994
  0
LINE
  5
883
330
1F
100
AcDbEntity
  8
OBJECT2
100
AcDbLine
 10
12.57807834526038
 20
11.84154683984669
 30
0.0
 11
12.57810052870534
 21
12.48978368551741
 31
0.0
  0
LINE
  5
884
330
1F
100
AcDbEntity
  8
OBJECT2
100
AcDbLine
 10
12.63748425207089
 20
12.48977290181519
 30
0.0
 11
12.63748425207089
 21
11.68213165573259
 31
0.0
  0
LINE
  5
885
330
1F
100
AcDbEntity
  8
OBJECT1
100
AcDbLine
 10
14.6911729210534
 20
12.4622072867673
 30
0.0
 11
14.6911729210534
 21
12.49180241439114
 31
0.0
  0
LINE
  5
886
330
1F
100
AcDbEntity
  8
OBJECT1
100
AcDbLine
 10
14.44153309250171
 20
12.4622072867673
 30
0.0
 11
14.44152101738244
 21
12.49179647580788
 31
0.0
  0
LINE
  5
887
330
1F
100
AcDbEntity
  8
OBJECT1
100
AcDbLine
 10
13.61365208938134
 20
12.44700839786204
 30
0.0
 11
13.56627797377218
 21
12.49438839236868
 31
0.0
  0
LINE
  5
888
330
1F
100
AcDbEntity
  8
OBJECT2
100
AcDbLine
 10
13.25939336593465
 20
12.48005899965737
 30
0.0
 11
13.25939336593465
 21
12.50480355914145
 31
0.0
  0
LINE
  5
889
330
1F
100
AcDbEntity
  8
OBJECT2
100
AcDbLine
 10
13.3138598114708
 20
12.45034915134775
 30
0.0
 11
13.25939336593465
 21
12.50480355914145
 31
0.0
  0
ARC
  5
88A
330
1F
100
AcDbEntity
  8
OBJECT2
100
AcDbCircle
 10
13.02326086947138
 20
12.41969881941343
 30
0.0
 40
0.0987461685717768
100
AcDbArc
 50
134.9485169999959
 51
180.0608830000016
  0
ARC
  5
88B
330
1F
100
AcDbEntity
  8
OBJECT2
100
AcDbCircle
 10
12.92248116937545
 20
12.46466286699909
 30
0.0
 40
0.1979015055300963
100
AcDbArc
 50
134.992348000004
 51
180.0041810000024
  0
LINE
  5
88C
330
1F
100
AcDbEntity
  8
OBJECT2
100
AcDbLine
 10
13.17553187305201
 20
12.21885636476802
 30
0.0
 11
13.50704010305391
 21
12.55036459476986
 31
0.0
  0
LINE
  5
88D
330
1F
100
AcDbEntity
  8
OBJECT1
100
AcDbLine
 10
11.55242053088283
 20
12.4622072867673
 30
0.0
 11
11.5524326060021
 21
12.49179647580788
 31
0.0
  0
LINE
  5
88E
330
1F
100
AcDbEntity
  8
OBJECT1
100
AcDbLine
 10
11.30278070233114
 20
12.4622072867673
 30
0.0
 11
11.30278070233114
 21
12.49180241439114
 31
0.0
  0
LINE
  5
88F
330
1F
100
AcDbEntity
  8
OBJECT2
100
AcDbLine
 10
9.851532307266054
 20
9.233426848900448
 30
0.0
 11
16.03291662153515
 21
9.233426848900448
 31
0.0
  0
LINE
  5
890
330
1F
100
AcDbEntity
  8
TEXT
100
AcDbLine
 10
13.85372093474835
 20
11.84656411840505
 30
0.0
 11
13.10464638794906
 21
11.84656411840504
 31
0.0
  0
TEXT
  5
891
330
1F
100
AcDbEntity
  8
TEXT
100
AcDbText
 10
13.07262501546164
 20
10.59561205173899
 30
0.0
 40
0.1979527752988987
  1
12" MIN.
  7
ROMANS
 72
     1
 11
13.73718076110795
 21
10.69458843938844
 31
0.0
100
AcDbText
 73
     2
  0
TEXT
  5
892
330
1F
100
AcDbEntity
  8
TEXT
100
AcDbText
 10
13.04905920887844
 20
10.28439965229295
 30
0.0
 40
0.1979527752988987
  1
30" MAX.
  7
ROMANS
 72
     1
 11
13.73718076110795
 21
10.3833760399424
 31
0.0
100
AcDbText
 73
     2
  0
LINE
  5
893
330
1F
100
AcDbEntity
  8
OBJECT1
100
AcDbLine
 10
13.27176536572922
 20
12.10582238280119
 30
0.0
 11
13.17553187305201
 21
12.20206231427079
 31
0.0
  0
LINE
  5
894
330
1F
100
AcDbEntity
  8
OBJECT2
100
AcDbLine
 10
13.13818589679755
 20
12.48006515850236
 30
0.0
 11
13.25939336593465
 21
12.48005899965737
 31
0.0
  0
LINE
  5
895
330
1F
100
AcDbEntity
  8
OBJECT2
100
AcDbLine
 10
13.13818617674507
 20
12.42063930303814
 30
0.0
 11
13.25939322596086
 21
12.42065176070187
 31
0.0
  0
ARC
  5
896
330
1F
100
AcDbEntity
  8
OBJECT2
100
AcDbCircle
 10
9.277513562947618
 20
9.223349196011879
 30
0.0
 40
0.1182617669150269
100
AcDbArc
 50
11.92138453944548
 51
133.2640689721285
  0
ARC
  5
897
330
1F
100
AcDbEntity
  8
OBJECT2
100
AcDbCircle
 10
9.193252527701361
 20
9.222203836915737
 30
0.0
 40
0.2016008748659959
100
AcDbArc
 50
7.288047068954824
 51
61.25814374775151
  0
ARC
  5
898
330
1F
100
AcDbEntity
  8
OBJECT2
100
AcDbCircle
 10
9.201582550755098
 20
9.017810088881438
 30
0.0
 40
0.391321355672775
100
AcDbArc
 50
40.74599573698757
 51
76.91215923996392
  0
ARC
  5
899
330
1F
100
AcDbEntity
  8
OBJECT2
100
AcDbCircle
 10
9.21303120457501
 20
9.18958778428537
 30
0.0
 40
0.1210196625065634
100
AcDbArc
 50
13.78566716555089
 51
97.86952953111907
  0
ARC
  5
89A
330
1F
100
AcDbEntity
  8
OBJECT2
100
AcDbCircle
 10
10.15212929782178
 20
9.363759180959108
 30
0.0
 40
0.5416587478983248
100
AcDbArc
 50
149.8885288271843
 51
190.5357265024498
  0
ARC
  5
89B
330
1F
100
AcDbEntity
  8
OBJECT2
100
AcDbCircle
 10
11.12598202567225
 20
9.526677732936986
 30
0.0
 40
1.446514413059952
100
AcDbArc
 50
175.6854962777993
 51
188.7643461350512
  0
ARC
  5
89C
330
1F
100
AcDbEntity
  8
OBJECT2
100
AcDbCircle
 10
9.879991321303513
 20
9.323149905530177
 30
0.0
 40
0.1844074070376601
100
AcDbArc
 50
113.9626415941813
 51
185.2516329546955
  0
ARC
  5
89D
330
1F
100
AcDbEntity
  8
OBJECT2
100
AcDbCircle
 10
8.829908221151789
 20
8.925479130646321
 30
0.0
 40
0.8594763235223977
100
AcDbArc
 50
23.24749768570301
 51
49.39084375319829
  0
ARC
  5
89E
330
1F
100
AcDbEntity
  8
OBJECT2
100
AcDbCircle
 10
8.755127302103446
 20
9.179952203214577
 30
0.0
 40
0.7487570768046545
100
AcDbArc
 50
7.156181247498238
 51
32.11127397783396
  0
ARC
  5
89F
330
1F
100
AcDbEntity
  8
OBJECT2
100
AcDbCircle
 10
9.933614977174407
 20
9.375112112079269
 30
0.0
 40
0.1734973494952757
100
AcDbArc
 50
137.7957781326434
 51
241.1392665223401
  0
LINE
  5
8A0
330
1F
100
AcDbEntity
  8
OBJECT1
100
AcDbLine
 10
11.52645625306349
 20
12.40659364226375
 30
0.0
 11
11.52645625306349
 21
8.065807597562093
 31
0.0
  0
LINE
  5
8A1
330
1F
100
AcDbEntity
  8
OBJECT1
100
AcDbLine
 10
11.3287087547926
 20
12.40659364226375
 30
0.0
 11
11.3287087547926
 21
8.065807597562093
 31
0.0
  0
HATCH
  5
8A2
330
1F
100
AcDbEntity
  8
OBJECT2
100
AcDbHatch
 10
0.0
 20
0.0
 30
0.0
210
0.0
220
0.0
230
1.0
  2
EARTH
 70
     0
 71
     0
 91
        2
 92
        7
 72
     1
 73
     1
 93
        3
 10
12.23925759415604
 20
9.218425622094956
 42
0.0
 10
11.52645605511079
 20
9.21842562209494
 42
0.0
 10
11.52645605511079
 20
8.412795052867325
 42
0.3788819611465625
 97
        0
 92
        7
 72
     1
 73
     1
 93
        3
 10
11.3287087547926
 20
9.218425622094924
 42
0.0
 10
10.61590721574748
 20
9.218425622094956
 42
0.3788819611465171
 10
11.3287087547926
 20
8.412795052867341
 42
0.0
 97
        0
 75
     0
 76
     1
 52
0.0
 41
0.421875
 77
     0
 78
     6
 53
0.0
 43
-301.4761242564846
 44
-100.2899513289111
 45
0.10546875
 46
0.10546875
 79
     2
 49
0.10546875
 49
-0.10546875
 53
0.0
 43
-301.4761242564846
 44
-100.2504005476611
 45
0.10546875
 46
0.10546875
 79
     2
 49
0.10546875
 49
-0.10546875
 53
0.0
 43
-301.4761242564846
 44
-100.2108497664111
 45
0.10546875
 46
0.10546875
 79
     2
 49
0.10546875
 49
-0.10546875
 53
90.0
 43
-301.4629406627345
 44
-100.1976661726611
 45
-0.10546875
 46
0.10546875
 79
     2
 49
0.10546875
 49
-0.10546875
 53
90.0
 43
-301.4233898814846
 44
-100.1976661726611
 45
-0.10546875
 46
0.10546875
 79
     2
 49
0.10546875
 49
-0.10546875
 53
90.0
 43
-301.3838391002345
 44
-100.1976661726611
 45
-0.10546875
 46
0.10546875
 79
     2
 49
0.10546875
 49
-0.10546875
 47
0.1611335482233883
 98
        2
 10
11.74216051194531
 20
8.916229431650238
 10
10.97114306305343
 20
8.938889321746644
  0
ELLIPSE
  5
8A3
330
1F
100
AcDbEntity
  8
OBJECT1
100
AcDbEllipse
 10
11.38422838442126
 20
8.065807597562125
 30
0.0
 11
-0.0474092895474101
 21
0.000000000000016
 31
0.0
210
0.0
220
0.0
230
0.9999999999999998
 40
0.7081462853467206
 41
0.0
 42
6.283185307179586
  0
ELLIPSE
  5
8A4
330
1F
100
AcDbEntity
  8
OBJECT1
100
AcDbEllipse
 10
11.47904696351608
 20
8.065807597562093
 30
0.0
 11
-0.0474092895474101
 21
0.000000000000016
 31
0.0
210
0.0
220
0.0
230
0.9999999999999998
 40
0.7081462853467206
 41
0.0
 42
3.141592653589793
  0
ELLIPSE
  5
8A5
330
1F
100
AcDbEntity
  8
OBJECT1
100
AcDbEllipse
 10
10.73253515425091
 20
11.12152987425366
 30
0.0
 11
-0.0474092895474101
 21
0.000000000000016
 31
0.0
210
0.0
220
0.0
230
0.9999999999999998
 40
0.7081462853467206
 41
0.0
 42
3.141592653589793
  0
ELLIPSE
  5
8A6
330
1F
100
AcDbEntity
  8
OBJECT1
100
AcDbEllipse
 10
10.63771657515609
 20
11.12152987425369
 30
0.0
 11
-0.0474092895474101
 21
0.000000000000016
 31
0.0
210
0.0
220
0.0
230
0.9999999999999998
 40
0.7081462853467206
 41
0.0
 42
6.283185307179586
  0
LINE
  5
8A7
330
1F
100
AcDbEntity
  8
OBJECT1
100
AcDbLine
 10
11.64988830836906
 20
12.18113632686475
 30
0.0
 11
11.52645625306349
 21
12.18113632686474
 31
0.0
  0
LINE
  5
8A8
330
1F
100
AcDbEntity
  8
OBJECT1
100
AcDbLine
 10
11.3287087547926
 20
12.18113632686474
 30
0.0
 11
11.02115684412965
 21
12.18113632686474
 31
0.0
  0
LINE
  5
8A9
330
1F
100
AcDbEntity
  8
OBJECT1
100
AcDbLine
 10
11.649888308369
 20
11.99149916867514
 30
0.0
 11
11.52645625306349
 21
11.99149935728772
 31
0.0
  0
LINE
  5
8AA
330
1F
100
AcDbEntity
  8
OBJECT1
100
AcDbLine
 10
11.3287087547926
 20
11.99149965945936
 30
0.0
 11
11.02115507428605
 21
11.99150012942229
 31
0.0
  0
LINE
  5
8AB
330
1F
100
AcDbEntity
  8
OBJECT1
100
AcDbLine
 10
10.59030728560868
 20
11.12152987425371
 30
0.0
 11
10.59030824635587
 21
11.75026310833666
 31
0.0
  0
LINE
  5
8AC
330
1F
100
AcDbEntity
  8
OBJECT1
100
AcDbLine
 10
10.77994444379832
 20
11.12152987425365
 30
0.0
 11
10.77994444379825
 21
11.75026133849305
 31
0.0
  0
LINE
  5
8AD
330
1F
100
AcDbEntity
  8
OBJECT1
100
AcDbLine
 10
11.02115595920782
 20
12.19754354081303
 30
0.0
 11
11.02115595920782
 21
11.97509291547397
 31
0.0
  0
ARC
  5
8AE
330
1F
100
AcDbEntity
  8
OBJECT1
100
AcDbCircle
 10
10.83837144906258
 20
11.93304801497429
 30
0.0
 40
0.264495349517107
100
AcDbArc
 50
90.00047300000593
 51
180.0007319999981
  0
ARC
  5
8AF
330
1F
100
AcDbEntity
  8
OBJECT1
100
AcDbCircle
 10
10.83839190237433
 20
11.93303831728343
 30
0.0
 40
0.0421442249452056
100
AcDbArc
 50
90.00137299999236
 51
179.998627000001
  0
LINE
  5
8B0
330
1F
100
AcDbEntity
  8
OBJECT1
100
AcDbLine
 10
10.86032349473962
 20
12.19754354081303
 30
0.0
 11
10.83836933320277
 21
12.19754354081303
 31
0.0
  0
LINE
  5
8B1
330
1F
100
AcDbEntity
  8
OBJECT1
100
AcDbLine
 10
10.86032349473962
 20
12.19754354081303
 30
0.0
 11
11.02115595920782
 21
12.19754354081303
 31
0.0
  0
LINE
  5
8B2
330
1F
100
AcDbEntity
  8
OBJECT1
100
AcDbLine
 10
11.02115595920782
 20
11.97509291547397
 30
0.0
 11
10.83839084444439
 21
11.97518254222863
 31
0.0
  0
LINE
  5
8B3
330
1F
100
AcDbEntity
  8
OBJECT1
100
AcDbLine
 10
10.79623674548662
 20
11.90668351995536
 30
0.0
 11
10.7962475011074
 21
11.93303937521335
 31
0.0
  0
LINE
  5
8B4
330
1F
100
AcDbEntity
  8
OBJECT1
100
AcDbLine
 10
10.79635165740359
 20
11.75027095832133
 30
0.0
 11
10.79624767747595
 21
11.93303606548244
 31
0.0
  0
LINE
  5
8B5
330
1F
100
AcDbEntity
  8
OBJECT1
100
AcDbLine
 10
10.57390103275053
 20
11.75025348850842
 30
0.0
 11
10.79635165740359
 21
11.75027095832133
 31
0.0
  0
LINE
  5
8B6
330
1F
100
AcDbEntity
  8
OBJECT1
100
AcDbLine
 10
10.57388840202373
 20
11.91108595248065
 30
0.0
 11
10.57390103275053
 21
11.75025348850842
 31
0.0
  0
LINE
  5
8B7
330
1F
100
AcDbEntity
  8
OBJECT1
100
AcDbLine
 10
10.57387609954546
 20
11.90668351995536
 30
0.0
 11
10.57387609954546
 21
11.9330446648629
 31
0.0
  0
LINE
  5
8B8
330
1F
100
AcDbEntity
  8
OBJECT1
100
AcDbLine
 10
11.02115684412965
 20
12.18113632686474
 30
0.0
 11
11.02115507428605
 21
11.99150012942229
 31
0.0
  0
LINE
  5
8B9
330
1F
100
AcDbEntity
  8
OBJECT1
100
AcDbLine
 10
11.9411266620113
 20
12.14937022103377
 30
0.0
 11
11.8810643685403
 21
12.14937022103377
 31
0.0
  0
LINE
  5
8BA
330
1F
100
AcDbEntity
  8
OBJECT1
100
AcDbLine
 10
11.9411266620113
 20
12.02326499948783
 30
0.0
 11
11.88106436854023
 21
12.02326499948781
 31
0.0
  0
LINE
  5
8BB
330
1F
100
AcDbEntity
  8
OBJECT1
100
AcDbLine
 10
11.9411266620113
 20
12.21242283180676
 30
0.0
 11
11.8810643685403
 21
12.21242283180676
 31
0.0
  0
LINE
  5
8BC
330
1F
100
AcDbEntity
  8
OBJECT1
100
AcDbLine
 10
12.35037097585096
 20
12.25846035953774
 30
0.0
 11
12.27629257516047
 21
12.23140626094356
 31
0.0
  0
LINE
  5
8BD
330
1F
100
AcDbEntity
  8
OBJECT1
100
AcDbLine
 10
12.27629257516047
 20
12.23140626094356
 30
0.0
 11
11.9601100911481
 21
12.23140626094356
 31
0.0
  0
ARC
  5
8BE
330
1F
100
AcDbEntity
  8
OBJECT1
100
AcDbCircle
 10
11.9601100911481
 20
12.21242283180676
 30
0.0
 40
0.0189834291368059
100
AcDbArc
 50
90.0
 51
180.0
  0
ARC
  5
8BF
330
1F
100
AcDbEntity
  8
OBJECT1
100
AcDbCircle
 10
12.38247602439352
 20
12.31832903937872
 30
0.0
 40
0.0474259229262322
100
AcDbArc
 50
138.0508214825663
 51
172.1293215993773
  0
LINE
  5
8C0
330
1F
100
AcDbEntity
  8
OBJECT1
100
AcDbLine
 10
12.34511866858095
 20
12.32482343269749
 30
0.0
 11
12.33549686921998
 21
12.32482343269749
 31
0.0
  0
LINE
  5
8C1
330
1F
100
AcDbEntity
  8
OBJECT1
100
AcDbLine
 10
12.34511866858095
 20
12.31183464605993
 30
0.0
 11
12.33549686921998
 21
12.31183464605993
 31
0.0
  0
LINE
  5
8C2
330
1F
100
AcDbEntity
  8
OBJECT1
100
AcDbLine
 10
12.36935440498776
 20
12.35921429008286
 30
0.0
 11
12.36935440498776
 21
12.35003190166619
 31
0.0
  0
ARC
  5
8C3
330
1F
100
AcDbEntity
  8
OBJECT1
100
AcDbCircle
 10
12.38833783412457
 20
12.35921429008286
 30
0.0
 40
0.0189834291368059
100
AcDbArc
 50
90.0
 51
180.0
  0
LINE
  5
8C4
330
1F
100
AcDbEntity
  8
OBJECT1
100
AcDbLine
 10
12.34720356079675
 20
12.35003190166619
 30
0.0
 11
12.36935440498776
 21
12.35003190166619
 31
0.0
  0
LINE
  5
8C5
330
1F
100
AcDbEntity
  8
OBJECT1
100
AcDbLine
 10
12.34511866858095
 20
12.32482343269749
 30
0.0
 11
12.34511866858095
 21
12.31183464605993
 31
0.0
  0
LINE
  5
8C6
330
1F
100
AcDbEntity
  8
OBJECT1
100
AcDbLine
 10
12.36935440498776
 20
12.28662617709123
 30
0.0
 11
12.36935440498776
 21
12.27744378867456
 31
0.0
  0
ARC
  5
8C7
330
1F
100
AcDbEntity
  8
OBJECT1
100
AcDbCircle
 10
12.35037097585096
 20
12.27744378867456
 30
0.0
 40
0.0189834291368059
100
AcDbArc
 50
270.0
 51
0.0
  0
LINE
  5
8C8
330
1F
100
AcDbEntity
  8
OBJECT1
100
AcDbLine
 10
12.34720356079675
 20
12.28662617709123
 30
0.0
 11
12.36935440498776
 21
12.28662617709123
 31
0.0
  0
ARC
  5
8C9
330
1F
100
AcDbEntity
  8
OBJECT1
100
AcDbCircle
 10
12.38247602439352
 20
12.31832903937872
 30
0.0
 40
0.0474259229262322
100
AcDbArc
 50
187.8706784006226
 51
221.9491785174336
  0
LINE
  5
8CA
330
1F
100
AcDbEntity
  8
OBJECT2
100
AcDbLine
 10
12.36935440498776
 20
12.35003190166619
 30
0.0
 11
12.36935440498776
 21
12.28662617709123
 31
0.0
  0
LINE
  5
8CB
330
1F
100
AcDbEntity
  8
OBJECT1
100
AcDbLine
 10
11.64988830836906
 20
12.19420649878094
 30
0.0
 11
11.649888308369
 21
11.97842872174064
 31
0.0
  0
LINE
  5
8CC
330
1F
100
AcDbEntity
  8
OBJECT1
100
AcDbLine
 10
11.88106436854023
 20
11.97842872174064
 30
0.0
 11
11.64988830836906
 21
11.97842872174064
 31
0.0
  0
LINE
  5
8CD
330
1F
100
AcDbEntity
  8
OBJECT1
100
AcDbLine
 10
11.88106436854023
 20
12.19420649878094
 30
0.0
 11
11.64988830836906
 21
12.19420649878094
 31
0.0
  0
LINE
  5
8CE
330
1F
100
AcDbEntity
  8
OBJECT1
100
AcDbLine
 10
11.9411266620113
 20
11.96021238871483
 30
0.0
 11
11.8810643685403
 21
11.96021238871483
 31
0.0
  0
LINE
  5
8CF
330
1F
100
AcDbEntity
  8
OBJECT1
100
AcDbLine
 10
12.27629257516047
 20
11.94122895957802
 30
0.0
 11
11.9601100911481
 21
11.94122895957802
 31
0.0
  0
LINE
  5
8D0
330
1F
100
AcDbEntity
  8
OBJECT1
100
AcDbLine
 10
12.35037097585096
 20
11.91417486098384
 30
0.0
 11
12.27629257516047
 21
11.94122895957802
 31
0.0
  0
ARC
  5
8D1
330
1F
100
AcDbEntity
  8
OBJECT1
100
AcDbCircle
 10
12.38247602439352
 20
11.85430618114288
 30
0.0
 40
0.0474259229262322
100
AcDbArc
 50
187.8706784006226
 51
221.9491785174336
  0
LINE
  5
8D2
330
1F
100
AcDbEntity
  8
OBJECT2
100
AcDbLine
 10
12.36935440498776
 20
11.82260331885541
 30
0.0
 11
12.36935440498776
 21
11.88600904343035
 31
0.0
  0
LINE
  5
8D3
330
1F
100
AcDbEntity
  8
OBJECT1
100
AcDbLine
 10
12.34720356079675
 20
11.82260331885541
 30
0.0
 11
12.36935440498776
 21
11.82260331885541
 31
0.0
  0
ARC
  5
8D4
330
1F
100
AcDbEntity
  8
OBJECT1
100
AcDbCircle
 10
12.38833783412457
 20
11.81342093043873
 30
0.0
 40
0.0189834291368059
100
AcDbArc
 50
180.0
 51
270.0
  0
LINE
  5
8D5
330
1F
100
AcDbEntity
  8
OBJECT1
100
AcDbLine
 10
12.36935440498776
 20
11.81342093043873
 30
0.0
 11
12.36935440498776
 21
11.82260331885541
 31
0.0
  0
ARC
  5
8D6
330
1F
100
AcDbEntity
  8
OBJECT1
100
AcDbCircle
 10
11.9601100911481
 20
11.96021238871483
 30
0.0
 40
0.0189834291368059
100
AcDbArc
 50
180.0
 51
270.0
  0
LINE
  5
8D7
330
1F
100
AcDbEntity
  8
OBJECT1
100
AcDbLine
 10
12.34511866858095
 20
11.8478117878241
 30
0.0
 11
12.33549686921998
 21
11.8478117878241
 31
0.0
  0
LINE
  5
8D8
330
1F
100
AcDbEntity
  8
OBJECT1
100
AcDbLine
 10
12.34511866858095
 20
11.86080057446167
 30
0.0
 11
12.33549686921998
 21
11.86080057446167
 31
0.0
  0
ARC
  5
8D9
330
1F
100
AcDbEntity
  8
OBJECT1
100
AcDbCircle
 10
12.38247602439352
 20
11.85430618114288
 30
0.0
 40
0.0474259229262322
100
AcDbArc
 50
138.0508214825663
 51
172.1293215993773
  0
LINE
  5
8DA
330
1F
100
AcDbEntity
  8
OBJECT1
100
AcDbLine
 10
12.36935440498776
 20
11.88600904343035
 30
0.0
 11
12.36935440498776
 21
11.89519143184704
 31
0.0
  0
ARC
  5
8DB
330
1F
100
AcDbEntity
  8
OBJECT1
100
AcDbCircle
 10
12.35037097585096
 20
11.89519143184704
 30
0.0
 40
0.0189834291368059
100
AcDbArc
 50
0.0
 51
90.0
  0
LINE
  5
8DC
330
1F
100
AcDbEntity
  8
OBJECT1
100
AcDbLine
 10
12.34720356079675
 20
11.88600904343035
 30
0.0
 11
12.36935440498776
 21
11.88600904343035
 31
0.0
  0
LINE
  5
8DD
330
1F
100
AcDbEntity
  8
OBJECT1
100
AcDbLine
 10
12.34511866858095
 20
11.8478117878241
 30
0.0
 11
12.34511866858095
 21
11.86080057446167
 31
0.0
  0
LINE
  5
8DE
330
1F
100
AcDbEntity
  8
OBJECT1
100
AcDbLine
 10
11.8810643685403
 20
11.96021238871483
 30
0.0
 11
11.8810643685403
 21
12.21242283180676
 31
0.0
  0
LINE
  5
8DF
330
1F
100
AcDbEntity
  8
OBJECT2
100
AcDbLine
 10
12.42170985422429
 20
12.37819771921968
 30
0.0
 11
12.42171090100858
 21
11.79443750130192
 31
0.0
  0
LINE
  5
8E0
330
1F
100
AcDbEntity
  8
OBJECT1
100
AcDbLine
 10
11.9411266620113
 20
12.21242283180676
 30
0.0
 11
11.9411266620113
 21
11.96021238871483
 31
0.0
  0
LINE
  5
8E1
330
1F
100
AcDbEntity
  8
OBJECT2
100
AcDbLine
 10
12.36935440498776
 20
12.25846035953776
 30
0.0
 11
12.36935440498776
 21
11.91417486098384
 31
0.0
  0
LINE
  5
8E2
330
1F
100
AcDbEntity
  8
OBJECT1
100
AcDbLine
 10
12.53850715332418
 20
11.7819549094728
 30
0.0
 11
12.42170983184073
 21
11.78195490947282
 31
0.0
  0
LINE
  5
8E3
330
1F
100
AcDbEntity
  8
OBJECT1
100
AcDbLine
 10
12.52663095230937
 20
12.39068031104878
 30
0.0
 11
12.42170983184073
 21
12.39068031104877
 31
0.0
  0
ARC
  5
8E4
330
1F
100
AcDbEntity
  8
OBJECT1
100
AcDbCircle
 10
12.70918874955688
 20
11.72422734591968
 30
0.0
 40
0.01232493569566
100
AcDbArc
 50
89.78094499999938
 51
180.2190550000006
  0
ARC
  5
8E5
330
1F
100
AcDbEntity
  8
OBJECT1
100
AcDbCircle
 10
12.6845194959502
 20
11.69447284598386
 30
0.0
 40
0.012344137114864
100
AcDbArc
 50
269.8704990000034
 51
0.1295009999966062
  0
LINE
  5
8E6
330
1F
100
AcDbEntity
  8
OBJECT2
100
AcDbLine
 10
12.57810115217232
 20
12.42075843041694
 30
0.0
 11
12.5452368682677
 21
12.42075255139654
 31
0.0
  0
LINE
  5
8E7
330
1F
100
AcDbEntity
  8
OBJECT2
100
AcDbLine
 10
12.5452368682677
 20
12.42075255139654
 30
0.0
 11
12.53850749027385
 21
12.41084492944041
 31
0.0
  0
LINE
  5
8E8
330
1F
100
AcDbEntity
  8
OBJECT2
100
AcDbLine
 10
12.57809990523831
 20
12.39068646989377
 30
0.0
 11
12.54523714821515
 21
12.39068031104878
 31
0.0
  0
LINE
  5
8E9
330
1F
100
AcDbEntity
  8
OBJECT2
100
AcDbLine
 10
12.54523714821515
 20
12.39068031104878
 30
0.0
 11
12.53850735030005
 21
12.36471000143796
 31
0.0
  0
LINE
  5
8EA
330
1F
100
AcDbEntity
  8
OBJECT2
100
AcDbLine
 10
12.54523714821515
 20
12.39068031104878
 30
0.0
 11
12.53850735030005
 21
12.40257486038284
 31
0.0
  0
LINE
  5
8EB
330
1F
100
AcDbEntity
  8
OBJECT2
100
AcDbLine
 10
12.5781000452121
 20
12.29674210792036
 30
0.0
 11
12.54523700824142
 21
12.29675386571532
 31
0.0
  0
LINE
  5
8EC
330
1F
100
AcDbEntity
  8
OBJECT2
100
AcDbLine
 10
12.5781000452121
 20
12.32681462821564
 30
0.0
 11
12.54523700824142
 21
12.3268263860106
 31
0.0
  0
LINE
  5
8ED
330
1F
100
AcDbEntity
  8
OBJECT2
100
AcDbLine
 10
12.54523700824142
 20
12.29675386571532
 30
0.0
 11
12.5385069303788
 21
12.3066554688002
 31
0.0
  0
LINE
  5
8EE
330
1F
100
AcDbEntity
  8
OBJECT2
100
AcDbLine
 10
12.54523700824142
 20
12.3268263860106
 30
0.0
 11
12.53850749027385
 21
12.31491951898654
 31
0.0
  0
LINE
  5
8EF
330
1F
100
AcDbEntity
  8
OBJECT2
100
AcDbLine
 10
12.57810115217232
 20
12.42075843041694
 30
0.0
 11
12.5781000452121
 21
12.29674210792036
 31
0.0
  0
LINE
  5
8F0
330
1F
100
AcDbEntity
  8
OBJECT2
100
AcDbLine
 10
12.53850749027385
 20
12.41084492944041
 30
0.0
 11
12.5385069303788
 21
12.3066554688002
 31
0.0
  0
LINE
  5
8F1
330
1F
100
AcDbEntity
  8
OBJECT2
100
AcDbLine
 10
12.54523700824142
 20
12.3268263860106
 30
0.0
 11
12.53850749027385
 21
12.35278465787894
 31
0.0
  0
LINE
  5
8F2
330
1F
100
AcDbEntity
  8
OBJECT2
100
AcDbLine
 10
12.52663106112543
 20
12.08784104490302
 30
0.0
 11
12.52663095230937
 21
12.39068031104878
 31
0.0
  0
LINE
  5
8F3
330
1F
100
AcDbEntity
  8
OBJECT1
100
AcDbLine
 10
12.52663095230937
 20
12.39068031104878
 30
0.0
 11
12.5266309211517
 21
12.47739334916164
 31
0.0
  0
LINE
  5
8F4
330
1F
100
AcDbEntity
  8
OBJECT1
100
AcDbLine
 10
12.6374841120971
 20
11.68212703087539
 30
0.0
 11
12.59047256727843
 21
11.68214073125472
 31
0.0
  0
LINE
  5
8F5
330
1F
100
AcDbEntity
  8
OBJECT1
100
AcDbLine
 10
12.63748425207089
 20
11.68213165573259
 30
0.0
 11
12.68449164117399
 21
11.68212870096554
 31
0.0
  0
LINE
  5
8F6
330
1F
100
AcDbEntity
  8
OBJECT1
100
AcDbLine
 10
12.54523693825459
 20
11.71754227921244
 30
0.0
 11
12.53850686039191
 21
11.72744388229735
 31
0.0
  0
LINE
  5
8F7
330
1F
100
AcDbEntity
  8
OBJECT2
100
AcDbLine
 10
12.57810108218549
 20
11.84154684391406
 30
0.0
 11
12.5780999752252
 21
11.71753052141748
 31
0.0
  0
LINE
  5
8F8
330
1F
100
AcDbEntity
  8
OBJECT1
100
AcDbLine
 10
12.5780999752252
 20
11.71753052141748
 30
0.0
 11
12.54523693825459
 21
11.71754227921244
 31
0.0
  0
LINE
  5
8F9
330
1F
100
AcDbEntity
  8
OBJECT1
100
AcDbLine
 10
12.57810052870534
 20
11.71753926977683
 30
0.0
 11
12.57808849096283
 21
11.69450490956742
 31
0.0
  0
ARC
  5
8FA
330
1F
100
AcDbEntity
  8
OBJECT1
100
AcDbCircle
 10
12.59046329023235
 20
11.69451554757239
 30
0.0
 40
0.0123748197950354
100
AcDbArc
 50
180.0485229999985
 51
270.042953000019
  0
LINE
  5
8FB
330
1F
100
AcDbEntity
  8
OBJECT2
100
AcDbLine
 10
12.54523693825459
 20
11.74761479950772
 30
0.0
 11
12.53850742028695
 21
11.77357307137606
 31
0.0
  0
LINE
  5
8FC
330
1F
100
AcDbEntity
  8
OBJECT2
100
AcDbLine
 10
12.5780999752252
 20
11.74760304171275
 30
0.0
 11
12.54523693825459
 21
11.74761479950772
 31
0.0
  0
LINE
  5
8FD
330
1F
100
AcDbEntity
  8
OBJECT1
100
AcDbLine
 10
12.57810108218549
 20
11.84154684391406
 30
0.0
 11
12.5452367982808
 21
11.84154096489365
 31
0.0
  0
LINE
  5
8FE
330
1F
100
AcDbEntity
  8
OBJECT2
100
AcDbLine
 10
12.57809983525147
 20
11.81147488339088
 30
0.0
 11
12.54523707822832
 21
11.8114687245459
 31
0.0
  0
LINE
  5
8FF
330
1F
100
AcDbEntity
  8
OBJECT2
100
AcDbLine
 10
12.54523707822832
 20
11.8114687245459
 30
0.0
 11
12.53850728031316
 21
11.82336327387998
 31
0.0
  0
LINE
  5
900
330
1F
100
AcDbEntity
  8
OBJECT1
100
AcDbLine
 10
12.5452367982808
 20
11.84154096489365
 30
0.0
 11
12.53850742028695
 21
11.83163334293755
 31
0.0
  0
LINE
  5
901
330
1F
100
AcDbEntity
  8
OBJECT2
100
AcDbLine
 10
12.54523707822832
 20
11.8114687245459
 30
0.0
 11
12.53850728031316
 21
11.78549841493507
 31
0.0
  0
LINE
  5
902
330
1F
100
AcDbEntity
  8
OBJECT1
100
AcDbLine
 10
12.53850742028695
 20
11.83163334293755
 30
0.0
 11
12.53850686039191
 21
11.72744388229735
 31
0.0
  0
LINE
  5
903
330
1F
100
AcDbEntity
  8
OBJECT2
100
AcDbLine
 10
12.54523693825459
 20
11.74761479950772
 30
0.0
 11
12.53850742028695
 21
11.73570793248366
 31
0.0
  0
LINE
  5
904
330
1F
100
AcDbEntity
  8
OBJECT2
100
AcDbLine
 10
12.42170983184079
 20
12.39068031104878
 30
0.0
 11
12.42171092339209
 21
11.7819549094728
 31
0.0
  0
LINE
  5
905
330
1F
100
AcDbEntity
  8
OBJECT2
100
AcDbLine
 10
13.02349112628972
 20
12.04903055336009
 30
0.0
 11
13.02349098631599
 21
12.20026225184879
 31
0.0
  0
LINE
  5
906
330
1F
100
AcDbEntity
  8
OBJECT2
100
AcDbLine
 10
12.95618194923852
 20
12.0100179096671
 30
0.0
 11
12.95618152931721
 21
12.24502613697227
 31
0.0
  0
ARC
  5
907
330
1F
100
AcDbEntity
  8
OBJECT1
100
AcDbCircle
 10
13.02769215844151
 20
12.09885938861897
 30
0.0
 40
0.0769545373029975
100
AcDbArc
 50
359.9669039999993
 51
24.18408999999996
  0
ARC
  5
908
330
1F
100
AcDbEntity
  8
OBJECT2
100
AcDbCircle
 10
13.02746260149187
 20
12.09882523502401
 30
0.0
 40
0.0771772341752087
100
AcDbArc
 50
24.13735999999776
 51
84.62607199999231
  0
LINE
  5
909
330
1F
100
AcDbEntity
  8
OBJECT2
100
AcDbLine
 10
13.17553159310455
 20
12.23563837752278
 30
0.0
 11
12.93938733884628
 21
12.47180082836853
 31
0.0
  0
ARC
  5
90A
330
1F
100
AcDbEntity
  8
OBJECT1
100
AcDbCircle
 10
13.10870042640881
 20
12.13524682463505
 30
0.0
 40
0.0118510367515945
100
AcDbArc
 50
134.9142059999954
 51
204.219603999999
  0
ARC
  5
90B
330
1F
100
AcDbEntity
  8
OBJECT2
100
AcDbCircle
 10
13.16715472407591
 20
12.22724751111916
 30
0.0
 40
0.0118569753348535
100
AcDbArc
 50
314.9525599999924
 51
45.04744000000756
  0
LINE
  5
90C
330
1F
100
AcDbEntity
  8
OBJECT2
100
AcDbLine
 10
13.17553187305201
 20
12.21885636476802
 30
0.0
 11
13.17553187305201
 21
12.21885636476802
 31
0.0
  0
ARC
  5
90D
330
1F
100
AcDbEntity
  8
OBJECT1
100
AcDbCircle
 10
13.18392259948196
 20
12.21045947949318
 30
0.0
 40
0.0118706340763491
100
AcDbArc
 50
134.9790430000088
 51
225.0218810000037
  0
LINE
  5
90E
330
1F
100
AcDbEntity
  8
OBJECT2
100
AcDbLine
 10
13.13818589679755
 20
12.48006515850236
 30
0.0
 11
13.13818617674507
 21
12.42063930303814
 31
0.0
  0
LINE
  5
90F
330
1F
100
AcDbEntity
  8
OBJECT1
100
AcDbLine
 10
13.10033307559512
 20
12.14363937072366
 30
0.0
 11
13.17553187305201
 21
12.21885636476802
 31
0.0
  0
LINE
  5
910
330
1F
100
AcDbEntity
  8
OBJECT2
100
AcDbLine
 10
12.94814717605427
 20
12.25658250972691
 30
0.0
 11
12.932597212245
 21
12.26243061299224
 31
0.0
  0
ARC
  5
911
330
1F
100
AcDbEntity
  8
OBJECT2
100
AcDbCircle
 10
12.94384956201516
 20
12.24502417733978
 30
0.0
 40
0.0123316660900202
100
AcDbArc
 50
359.9243320000029
 51
69.60372900001018
  0
ARC
  5
912
330
1F
100
AcDbEntity
  8
OBJECT2
100
AcDbCircle
 10
12.93698776885397
 20
12.27410624338169
 30
0.0
 40
0.0124734002771342
100
AcDbArc
 50
179.9368289999995
 51
249.3921360000141
  0
LINE
  5
913
330
1F
100
AcDbEntity
  8
OBJECT2
100
AcDbLine
 10
13.01111856660018
 20
12.21264614941205
 30
0.0
 11
12.96855338913805
 21
12.21263411166956
 31
0.0
  0
ARC
  5
914
330
1F
100
AcDbEntity
  8
OBJECT2
100
AcDbCircle
 10
13.03588594180551
 20
12.18800111126407
 30
0.0
 40
0.0123956048364418
100
AcDbArc
 50
180.0394900000009
 51
264.4665989999988
  0
ARC
  5
915
330
1F
100
AcDbEntity
  8
OBJECT2
100
AcDbCircle
 10
13.0110641168115
 20
12.20021885998637
 30
0.0
 40
0.0124274752332649
100
AcDbArc
 50
0.2000269999978384
 51
89.74889800000187
  0
LINE
  5
916
330
1F
100
AcDbEntity
  8
OBJECT2
100
AcDbLine
 10
12.92451442806461
 20
12.21781747959724
 30
0.0
 11
12.92451484798586
 21
12.41959397907487
 31
0.0
  0
ARC
  5
917
330
1F
100
AcDbEntity
  8
OBJECT2
100
AcDbCircle
 10
12.96857732464922
 20
12.22502976702781
 30
0.0
 40
0.0123956048364418
100
AcDbArc
 50
180.1098329999966
 51
269.8895570000004
  0
LINE
  5
918
330
1F
100
AcDbEntity
  8
OBJECT2
100
AcDbLine
 10
12.72458054302896
 20
12.18659703458012
 30
0.0
 11
12.72457998313398
 21
12.00230339642238
 31
0.0
  0
LINE
  5
919
330
1F
100
AcDbEntity
  8
OBJECT2
100
AcDbLine
 10
12.69686420086353
 20
12.03353531928696
 30
0.0
 11
12.72456794539153
 21
12.03354161810571
 31
0.0
  0
LINE
  5
91A
330
1F
100
AcDbEntity
  8
OBJECT2
100
AcDbLine
 10
12.69686420086353
 20
12.1522296997207
 30
0.0
 11
12.72458040305523
 21
12.15223585856568
 31
0.0
  0
LINE
  5
91B
330
1F
100
AcDbEntity
  8
OBJECT2
100
AcDbLine
 10
12.72458054302896
 20
12.28966362579972
 30
0.0
 11
12.72457998313398
 21
12.46464844970284
 31
0.0
  0
LINE
  5
91C
330
1F
100
AcDbEntity
  8
OBJECT1
100
AcDbLine
 10
12.92846504717805
 20
11.89011541579912
 30
0.0
 11
12.92846511589473
 21
11.84656411840504
 31
0.0
  0
ARC
  5
91D
330
1F
100
AcDbEntity
  8
OBJECT1
100
AcDbCircle
 10
12.91609780649103
 20
11.89004626876673
 30
0.0
 40
0.0123676934951246
100
AcDbArc
 50
0.0111240000026246
 51
110.6098920000111
  0
LINE
  5
91E
330
1F
100
AcDbEntity
  8
OBJECT1
100
AcDbLine
 10
13.10464638794906
 20
11.84656411840504
 30
0.0
 11
12.92846511589473
 21
11.84656411840504
 31
0.0
  0
LINE
  5
91F
330
1F
100
AcDbEntity
  8
OBJECT1
100
AcDbLine
 10
12.69686378094228
 20
11.72418031473974
 30
0.0
 11
12.69686364096855
 21
11.69450070076007
 31
0.0
  0
LINE
  5
920
330
1F
100
AcDbEntity
  8
OBJECT1
100
AcDbLine
 10
12.72458054302896
 20
11.82268488150686
 30
0.0
 11
12.72458012310771
 21
11.74893621209756
 31
0.0
  0
ARC
  5
921
330
1F
100
AcDbEntity
  8
OBJECT1
100
AcDbCircle
 10
12.73691978896611
 20
11.82271091662431
 30
0.0
 40
0.0123393862482569
100
AcDbArc
 50
110.5393939999893
 51
180.1214900000026
  0
LINE
  5
922
330
1F
100
AcDbEntity
  8
OBJECT2
100
AcDbLine
 10
12.72458054302896
 20
11.82268488150686
 30
0.0
 11
12.72456808536526
 21
11.85861740283619
 31
0.0
  0
LINE
  5
923
330
1F
100
AcDbEntity
  8
OBJECT1
100
AcDbLine
 10
12.71220840326066
 20
11.73655805345804
 30
0.0
 11
12.70923578073685
 21
11.7365523145343
 31
0.0
  0
ARC
  5
924
330
1F
100
AcDbEntity
  8
OBJECT1
100
AcDbCircle
 10
12.71219454585942
 20
11.74894391065379
 30
0.0
 40
0.0123859051504521
100
AcDbArc
 50
270.0635990000031
 51
359.9644930000005
  0
LINE
  5
925
330
1F
100
AcDbEntity
  8
OBJECT1
100
AcDbLine
 10
12.91174392300445
 20
11.90162363758383
 30
0.0
 11
12.73259054085948
 21
11.83426588964148
 31
0.0
  0
LINE
  5
926
330
1F
100
AcDbEntity
  8
OBJECT1
100
AcDbLine
 10
13.10464650666805
 20
12.09881473699276
 30
0.0
 11
13.10464638794906
 21
11.84656411840504
 31
0.0
  0
LINE
  5
927
330
1F
100
AcDbEntity
  8
OBJECT2
100
AcDbLine
 10
12.9284656070731
 20
11.89004878829423
 30
0.0
 11
12.9284654670993
 21
11.99078915576641
 31
0.0
  0
LINE
  5
928
330
1F
100
AcDbEntity
  8
OBJECT2
100
AcDbLine
 10
12.69686378094228
 20
11.72418031473974
 30
0.0
 11
12.69686420086353
 21
12.41302739055195
 31
0.0
  0
ARC
  5
929
330
1F
100
AcDbEntity
  8
OBJECT1
100
AcDbCircle
 10
11.55999420406571
 20
12.41276937294752
 30
0.0
 40
0.0061880037558436
100
AcDbArc
 50
270.3530879999967
 51
359.5909729999974
  0
LINE
  5
92A
330
1F
100
AcDbEntity
  8
OBJECT1
100
AcDbLine
 10
11.56618200986881
 20
12.44995005092081
 30
0.0
 11
11.56618200986881
 21
12.41272522947861
 31
0.0
  0
LINE
  5
92B
330
1F
100
AcDbEntity
  8
OBJECT1
100
AcDbLine
 10
11.56004428611787
 20
12.45607569955241
 30
0.0
 11
11.55855825463377
 21
12.45606976096915
 31
0.0
  0
ARC
  5
92C
330
1F
100
AcDbEntity
  8
OBJECT1
100
AcDbCircle
 10
11.55999400611295
 20
12.44988769579657
 30
0.0
 40
0.0061883996613942
100
AcDbArc
 50
0.5785490000007992
 51
89.53331000000671
  0
ARC
  5
92D
330
1F
100
AcDbEntity
  8
OBJECT1
100
AcDbCircle
 10
11.55857706014739
 20
12.46222629023375
 30
0.0
 40
0.0061565292645711
100
AcDbArc
 50
180.1756899999969
 51
269.8243099999834
  0
LINE
  5
92E
330
1F
100
AcDbEntity
  8
OBJECT2
100
AcDbLine
 10
11.52645625306349
 20
12.3443224500213
 30
0.0
 11
11.32868460455399
 21
12.3443224500213
 31
0.0
  0
LINE
  5
92F
330
1F
100
AcDbEntity
  8
OBJECT2
100
AcDbLine
 10
11.3287087547926
 20
12.40659364226375
 30
0.0
 11
11.5264804033021
 21
12.40659364226375
 31
0.0
  0
LINE
  5
930
330
1F
100
AcDbEntity
  8
OBJECT2
100
AcDbLine
 10
11.35960265057518
 20
12.37545804614251
 30
0.0
 11
11.49558650751951
 21
12.37545804614251
 31
0.0
  0
LINE
  5
931
330
1F
100
AcDbEntity
  8
OBJECT2
100
AcDbLine
 10
11.35960265057518
 20
12.31318705185288
 30
0.0
 11
11.49558650751951
 21
12.31318705185288
 31
0.0
  0
LINE
  5
932
330
1F
100
AcDbEntity
  8
OBJECT1
100
AcDbLine
 10
11.3287087547926
 20
12.40659364226375
 30
0.0
 11
11.29518109733464
 21
12.40659364226375
 31
0.0
  0
ARC
  5
933
330
1F
100
AcDbEntity
  8
OBJECT1
100
AcDbCircle
 10
11.29521059229816
 20
12.41276046507263
 30
0.0
 40
0.0061672187144372
100
AcDbArc
 50
180.2157290000004
 51
269.7263790000061
  0
LINE
  5
934
330
1F
100
AcDbEntity
  8
OBJECT1
100
AcDbLine
 10
11.28904337358376
 20
12.44995005092081
 30
0.0
 11
11.28904337358376
 21
12.41273730459791
 31
0.0
  0
LINE
  5
935
330
1F
100
AcDbEntity
  8
OBJECT1
100
AcDbLine
 10
11.29518109733464
 20
12.45607569955241
 30
0.0
 11
11.29665505369953
 21
12.45607569955241
 31
0.0
  0
ARC
  5
936
330
1F
100
AcDbEntity
  8
OBJECT1
100
AcDbCircle
 10
11.29520010080109
 20
12.44991917028785
 30
0.0
 40
0.0061569251701217
100
AcDbArc
 50
90.17744399998084
 51
179.7118839999992
  0
ARC
  5
937
330
1F
100
AcDbEntity
  8
OBJECT1
100
AcDbCircle
 10
11.29663426865813
 20
12.46222213322544
 30
0.0
 40
0.0061464336730308
100
AcDbArc
 50
270.1935729999856
 51
359.8627320000004
  0
LINE
  5
938
330
1F
100
AcDbEntity
  8
OBJECT2
100
AcDbLine
 10
11.55830447917578
 20
12.45608183608846
 30
0.0
 11
11.29518109733464
 21
12.45607569955241
 31
0.0
  0
LINE
  5
939
330
1F
100
AcDbEntity
  8
OBJECT1
100
AcDbLine
 10
11.52645625306349
 20
12.40659364226375
 30
0.0
 11
11.56002013587933
 21
12.40659364226375
 31
0.0
  0
LINE
  5
93A
330
1F
100
AcDbEntity
  8
OBJECT1
100
AcDbLine
 10
14.66524486859201
 20
12.40659364226375
 30
0.0
 11
14.66524486859201
 21
8.065807597562093
 31
0.0
  0
LINE
  5
93B
330
1F
100
AcDbEntity
  8
OBJECT1
100
AcDbLine
 10
14.46749756827381
 20
12.40658156714444
 30
0.0
 11
14.46749756827381
 21
8.065807597562093
 31
0.0
  0
ARC
  5
93C
330
1F
100
AcDbEntity
  8
OBJECT2
100
AcDbCircle
 10
15.9508339516268
 20
9.375112112079269
 30
0.0
 40
0.1734973494952757
100
AcDbArc
 50
298.8607334776598
 51
42.20422186735651
  0
ARC
  5
93D
330
1F
100
AcDbEntity
  8
OBJECT2
100
AcDbCircle
 10
17.12932162669776
 20
9.179952203214577
 30
0.0
 40
0.7487570768046545
100
AcDbArc
 50
147.888726022166
 51
172.8438187525017
  0
ARC
  5
93E
330
1F
100
AcDbEntity
  8
OBJECT2
100
AcDbCircle
 10
17.05454070764942
 20
8.925479130646321
 30
0.0
 40
0.8594763235223977
100
AcDbArc
 50
130.6091562468016
 51
156.7525023142969
  0
ARC
  5
93F
330
1F
100
AcDbEntity
  8
OBJECT2
100
AcDbCircle
 10
16.00445760749769
 20
9.323149905530177
 30
0.0
 40
0.1844074070376601
100
AcDbArc
 50
354.7483670453044
 51
66.03735840581861
  0
ARC
  5
940
330
1F
100
AcDbEntity
  8
OBJECT2
100
AcDbCircle
 10
14.75846690312896
 20
9.526677732936986
 30
0.0
 40
1.446514413059952
100
AcDbArc
 50
351.2356538649488
 51
4.31450372220063
  0
ARC
  5
941
330
1F
100
AcDbEntity
  8
OBJECT2
100
AcDbCircle
 10
15.73231963097943
 20
9.363759180959108
 30
0.0
 40
0.5416587478983248
100
AcDbArc
 50
349.4642734975501
 51
30.11147117281569
  0
ARC
  5
942
330
1F
100
AcDbEntity
  8
OBJECT2
100
AcDbCircle
 10
16.6714177242262
 20
9.18958778428537
 30
0.0
 40
0.1210196625065634
100
AcDbArc
 50
82.13047046888094
 51
166.2143328344491
  0
ARC
  5
943
330
1F
100
AcDbEntity
  8
OBJECT2
100
AcDbCircle
 10
16.68286637804611
 20
9.017810088881438
 30
0.0
 40
0.391321355672775
100
AcDbArc
 50
103.087840760036
 51
139.2540042630124
  0
ARC
  5
944
330
1F
100
AcDbEntity
  8
OBJECT2
100
AcDbCircle
 10
16.69119640109985
 20
9.222203836915737
 30
0.0
 40
0.2016008748659959
100
AcDbArc
 50
118.7418562522484
 51
172.7119529310451
  0
ARC
  5
945
330
1F
100
AcDbEntity
  8
OBJECT2
100
AcDbCircle
 10
16.60693536585359
 20
9.223349196011879
 30
0.0
 40
0.1182617669150269
100
AcDbArc
 50
46.73593102787149
 51
168.0786154605545
  0
HATCH
  5
946
330
1F
100
AcDbEntity
  8
OBJECT2
100
AcDbHatch
 10
0.0
 20
0.0
 30
0.0
210
0.0
220
0.0
230
1.0
  2
EARTH
 70
     0
 71
     0
 91
        2
 92
        7
 72
     1
 73
     1
 93
        3
 10
15.37804640763725
 20
9.218425622094956
 42
0.0
 10
14.66524486859201
 20
9.21842562209494
 42
0.0
 10
14.66524486859201
 20
8.412795052867325
 42
0.3788819611465625
 97
        0
 92
        7
 72
     1
 73
     1
 93
        3
 10
14.46749756827381
 20
9.218425622094924
 42
0.0
 10
13.75469602922869
 20
9.218425622094956
 42
0.3788819611465171
 10
14.46749756827381
 20
8.412795052867341
 42
0.0
 97
        0
 75
     0
 76
     1
 52
0.0
 41
0.421875
 77
     0
 78
     6
 53
0.0
 43
-298.3373354430034
 44
-100.2899513289111
 45
0.10546875
 46
0.10546875
 79
     2
 49
0.10546875
 49
-0.10546875
 53
0.0
 43
-298.3373354430034
 44
-100.2504005476611
 45
0.10546875
 46
0.10546875
 79
     2
 49
0.10546875
 49
-0.10546875
 53
0.0
 43
-298.3373354430034
 44
-100.2108497664111
 45
0.10546875
 46
0.10546875
 79
     2
 49
0.10546875
 49
-0.10546875
 53
90.0
 43
-298.3241518492534
 44
-100.1976661726611
 45
-0.10546875
 46
0.10546875
 79
     2
 49
0.10546875
 49
-0.10546875
 53
90.0
 43
-298.2846010680034
 44
-100.1976661726611
 45
-0.10546875
 46
0.10546875
 79
     2
 49
0.10546875
 49
-0.10546875
 53
90.0
 43
-298.2450502867534
 44
-100.1976661726611
 45
-0.10546875
 46
0.10546875
 79
     2
 49
0.10546875
 49
-0.10546875
 47
0.1611335482233883
 98
        2
 10
14.88094932542652
 20
8.916229431650238
 10
14.10993187653464
 20
8.938889321746644
  0
ELLIPSE
  5
947
330
1F
100
AcDbEntity
  8
OBJECT1
100
AcDbEllipse
 10
14.6178355790446
 20
8.065807597562093
 30
0.0
 11
-0.0474092895474101
 21
0.000000000000016
 31
0.0
210
0.0
220
0.0
230
0.9999999999999998
 40
0.7081462853467206
 41
0.0
 42
3.141592653589793
  0
ELLIPSE
  5
948
330
1F
100
AcDbEntity
  8
OBJECT1
100
AcDbEllipse
 10
14.52301699994978
 20
8.065807597562125
 30
0.0
 11
-0.0474092895474101
 21
0.000000000000016
 31
0.0
210
0.0
220
0.0
230
0.9999999999999998
 40
0.7081462853467206
 41
0.0
 42
6.283185307179586
  0
SOLID
  5
949
330
1F
100
AcDbEntity
  8
TEXT
100
AcDbTrace
 10
13.66607247554474
 20
11.63395416464068
 30
0.0
 11
13.73205673397767
 21
11.63395416464068
 31
0.0
 12
13.69906460476117
 22
11.83190693993958
 32
0.0
 13
13.69906460476117
 23
11.83190693993958
 33
0.0
  0
LINE
  5
94A
330
1F
100
AcDbEntity
  8
TEXT
100
AcDbLine
 10
13.6990646641206
 20
10.85140194988059
 30
0.0
 11
13.6990646641206
 21
11.82577245633534
 31
0.0
  0
LINE
  5
94B
330
1F
100
AcDbEntity
  8
TEXT
100
AcDbLine
 10
13.6990646641206
 20
10.24891863533849
 30
0.0
 11
13.6990646641206
 21
9.350273057861231
 31
0.0
  0
SOLID
  5
94C
330
1F
100
AcDbEntity
  8
TEXT
100
AcDbTrace
 10
13.66607253490417
 20
9.54822583316014
 30
0.0
 11
13.7320567933371
 21
9.54822583316014
 31
0.0
 12
13.6990646641206
 22
9.350273057861231
 32
0.0
 13
13.6990646641206
 23
9.350273057861231
 33
0.0
  0
ARC
  5
94D
330
1F
100
AcDbEntity
  8
OBJECT1
100
AcDbCircle
 10
14.69874322903913
 20
12.41276046507263
 30
0.0
 40
0.0061672187144372
100
AcDbArc
 50
270.2736209999938
 51
359.7842709999995
  0
LINE
  5
94E
330
1F
100
AcDbEntity
  8
OBJECT1
100
AcDbLine
 10
14.70491024980084
 20
12.44995005092081
 30
0.0
 11
14.70491024980084
 21
12.41273730459791
 31
0.0
  0
LINE
  5
94F
330
1F
100
AcDbEntity
  8
OBJECT1
100
AcDbLine
 10
14.69877272400266
 20
12.45607569955241
 30
0.0
 11
14.69729856968501
 21
12.45607569955241
 31
0.0
  0
ARC
  5
950
330
1F
100
AcDbEntity
  8
OBJECT1
100
AcDbCircle
 10
14.69875372053621
 20
12.4499187743823
 30
0.0
 40
0.0061567272173464
100
AcDbArc
 50
0.2916419999991289
 51
89.82432600000299
  0
LINE
  5
951
330
1F
100
AcDbEntity
  8
OBJECT1
100
AcDbLine
 10
14.66524486859201
 20
12.40659364226375
 30
0.0
 11
14.69877272400266
 21
12.40659364226375
 31
0.0
  0
ARC
  5
952
330
1F
100
AcDbEntity
  8
OBJECT1
100
AcDbCircle
 10
14.69731935472641
 20
12.46222213322544
 30
0.0
 40
0.0061464336730308
100
AcDbArc
 50
180.1372679999995
 51
269.8064270000143
  0
LINE
  5
953
330
1F
100
AcDbEntity
  8
OBJECT1
100
AcDbLine
 10
14.46749756827381
 20
12.40659364226375
 30
0.0
 11
14.43393348750521
 21
12.40659364226375
 31
0.0
  0
ARC
  5
954
330
1F
100
AcDbEntity
  8
OBJECT1
100
AcDbCircle
 10
14.43395961727159
 20
12.41276937294752
 30
0.0
 40
0.0061880037558436
100
AcDbArc
 50
180.4090270000024
 51
269.6469120000033
  0
LINE
  5
955
330
1F
100
AcDbEntity
  8
OBJECT1
100
AcDbLine
 10
14.42777161351573
 20
12.44995005092081
 30
0.0
 11
14.42777161351573
 21
12.41272522947861
 31
0.0
  0
LINE
  5
956
330
1F
100
AcDbEntity
  8
OBJECT1
100
AcDbLine
 10
14.43390933726667
 20
12.45607569955241
 30
0.0
 11
14.43539536875084
 21
12.45606976096915
 31
0.0
  0
ARC
  5
957
330
1F
100
AcDbEntity
  8
OBJECT1
100
AcDbCircle
 10
14.43395981522435
 20
12.44988769579657
 30
0.0
 40
0.0061885976141695
100
AcDbArc
 50
90.46843700001709
 51
179.4214630000023
  0
ARC
  5
958
330
1F
100
AcDbEntity
  8
OBJECT1
100
AcDbCircle
 10
14.43537636528439
 20
12.46222629023375
 30
0.0
 40
0.0061567272173464
100
AcDbArc
 50
270.1774289999856
 51
359.824310000003
  0
LINE
  5
959
330
1F
100
AcDbEntity
  8
OBJECT1
100
AcDbLine
 10
13.62852192074046
 20
12.41499094231371
 30
0.0
 11
13.53855351312928
 21
12.32502253470247
 31
0.0
  0
LINE
  5
95A
330
1F
100
AcDbEntity
  8
OBJECT1
100
AcDbLine
 10
13.61767479497595
 20
12.44333534669434
 30
0.0
 11
13.62852234066178
 21
12.43248808095603
 31
0.0
  0
ARC
  5
95B
330
1F
100
AcDbEntity
  8
OBJECT1
100
AcDbCircle
 10
13.61976782245624
 20
12.423740001543
 30
0.0
 40
0.0123762054644625
100
AcDbArc
 50
315.0157319999914
 51
44.97902699998848
  0
LINE
  5
95C
330
1F
100
AcDbEntity
  8
OBJECT1
100
AcDbLine
 10
13.61365166946009
 20
12.43932453886848
 30
0.0
 11
13.61365208938134
 21
12.44700839786204
 31
0.0
  0
ARC
  5
95D
330
1F
100
AcDbEntity
  8
OBJECT1
100
AcDbCircle
 10
13.54730411206978
 20
12.31627445528944
 30
0.0
 40
0.0123736320783836
100
AcDbArc
 50
135.0087279999979
 51
224.9930109999936
  0
ARC
  5
95E
330
1F
100
AcDbEntity
  8
OBJECT1
100
AcDbCircle
 10
13.59286346801319
 20
12.23571886242891
 30
0.0
 40
0.0123726423145071
100
AcDbArc
 50
315.0000000000046
 51
44.99825299999881
  0
LINE
  5
95F
330
1F
100
AcDbEntity
  8
OBJECT1
100
AcDbLine
 10
13.60161252724248
 20
12.24446736176319
 30
0.0
 11
13.53855379307674
 21
12.30752609592892
 31
0.0
  0
LINE
  5
960
330
1F
100
AcDbEntity
  8
OBJECT1
100
AcDbLine
 10
13.47500557070807
 20
12.11786040522878
 30
0.0
 11
13.41194669656867
 21
12.18091899942076
 31
0.0
  0
ARC
  5
961
330
1F
100
AcDbEntity
  8
OBJECT1
100
AcDbCircle
 10
13.48375337017361
 20
12.12661184401181
 30
0.0
 40
0.0123738300311589
100
AcDbArc
 50
225.0122380000093
 51
314.9916990000068
  0
LINE
  5
962
330
1F
100
AcDbEntity
  8
OBJECT1
100
AcDbLine
 10
13.30448310994754
 20
12.09095101173076
 30
0.0
 11
13.39445067771634
 21
12.18091857949951
 31
0.0
  0
LINE
  5
963
330
1F
100
AcDbEntity
  8
OBJECT1
100
AcDbLine
 10
13.27613800569817
 20
12.10179967720658
 30
0.0
 11
13.27613800569817
 21
12.10179967720658
 31
0.0
  0
LINE
  5
964
330
1F
100
AcDbEntity
  8
OBJECT1
100
AcDbLine
 10
13.28016169110908
 20
12.10582280272245
 30
0.0
 11
13.27176536572922
 21
12.10582238280119
 31
0.0
  0
ARC
  5
965
330
1F
100
AcDbEntity
  8
OBJECT1
100
AcDbCircle
 10
13.29573475058708
 20
12.0997004908813
 30
0.0
 40
0.0123728402672824
100
AcDbArc
 50
225.0035099999956
 51
314.9960630000079
  0
LINE
  5
966
330
1F
100
AcDbEntity
  8
OBJECT1
100
AcDbLine
 10
13.27613800569817
 20
12.10179967720658
 30
0.0
 11
13.2869863912265
 21
12.09095101173076
 31
0.0
  0
ARC
  5
967
330
1F
100
AcDbEntity
  8
OBJECT1
100
AcDbCircle
 10
13.40319875712934
 20
12.17216966024398
 30
0.0
 40
0.0123724443617318
100
AcDbArc
 50
45.00524099999625
 51
134.9969400000095
  0
LINE
  5
968
330
1F
100
AcDbEntity
  8
OBJECT2
100
AcDbLine
 10
13.25939322596086
 20
12.42065176070187
 30
0.0
 11
13.25939336593465
 21
12.39590734119152
 31
0.0
  0
LINE
  5
969
330
1F
100
AcDbEntity
  8
OBJECT2
100
AcDbLine
 10
13.3138598114708
 20
12.45034915134775
 30
0.0
 11
13.25939336593465
 21
12.39590734119152
 31
0.0
  0
LINE
  5
96A
330
1F
100
AcDbEntity
  8
OBJECT2
100
AcDbLine
 10
13.54705677845398
 20
12.17241601404358
 30
0.0
 11
13.4665017454884
 21
12.25297076706161
 31
0.0
  0
LINE
  5
96B
330
1F
100
AcDbEntity
  8
OBJECT2
100
AcDbLine
 10
13.39445067771634
 20
12.18091857949951
 30
0.0
 11
13.53855351312928
 21
12.32502253470247
 31
0.0
  0
LINE
  5
96C
330
1F
100
AcDbEntity
  8
OBJECT2
100
AcDbLine
 10
13.28016169110908
 20
12.10582280272245
 30
0.0
 11
13.61365166946009
 21
12.43931166128349
 31
0.0
  0
LINE
  5
96D
330
1F
100
AcDbEntity
  8
OBJECT1
100
AcDbLine
 10
13.60161210732123
 20
12.22697022312087
 30
0.0
 11
13.49250172953419
 21
12.11786096512379
 31
0.0
  0
LINE
  5
96E
330
1F
100
AcDbEntity
  8
OBJECT2
100
AcDbLine
 10
14.46749756827381
 20
12.3443224500213
 30
0.0
 11
14.66526901883055
 21
12.3443224500213
 31
0.0
  0
LINE
  5
96F
330
1F
100
AcDbEntity
  8
OBJECT2
100
AcDbLine
 10
14.66524486859201
 20
12.40659364226375
 30
0.0
 11
14.46747341803527
 21
12.40659364226375
 31
0.0
  0
LINE
  5
970
330
1F
100
AcDbEntity
  8
OBJECT2
100
AcDbLine
 10
14.43564914420876
 20
12.45608183608846
 30
0.0
 11
14.69877272400266
 21
12.45607569955241
 31
0.0
  0
LINE
  5
971
330
1F
100
AcDbEntity
  8
OBJECT2
100
AcDbLine
 10
14.63435097280942
 20
12.31318705185288
 30
0.0
 11
14.49836711586502
 21
12.31318705185288
 31
0.0
  0
LINE
  5
972
330
1F
100
AcDbEntity
  8
OBJECT2
100
AcDbLine
 10
14.63435097280942
 20
12.37545804614251
 30
0.0
 11
14.49836711586502
 21
12.37545804614251
 31
0.0
  0
LINE
  5
973
330
1F
100
AcDbEntity
  8
OBJECT2
100
AcDbLine
 10
23.47718796220289
 20
11.41081550151411
 30
0.0
 11
23.47718796220289
 21
12.01252708564347
 31
0.0
  0
LINE
  5
974
330
1F
100
AcDbEntity
  8
OBJECT2
100
AcDbLine
 10
22.19505981537228
 20
11.41081550151411
 30
0.0
 11
22.19505981537228
 21
12.01252708564347
 31
0.0
  0
LINE
  5
975
330
1F
100
AcDbEntity
  8
OBJECT2
100
AcDbLine
 10
22.19505981537228
 20
12.01252708564347
 30
0.0
 11
23.47718796220289
 21
12.01252708564347
 31
0.0
  0
ARC
  5
976
330
1F
100
AcDbEntity
  8
OBJECT2
100
AcDbCircle
 10
23.50480201740567
 20
12.36325163115429
 30
0.0
 40
0.0484875855828642
100
AcDbArc
 50
282.1143365401392
 51
77.88660274260699
  0
ARC
  5
977
330
1F
100
AcDbEntity
  8
OBJECT1
100
AcDbCircle
 10
23.5251535388046
 20
12.36325163115429
 30
0.0
 40
0.0484875855828642
100
AcDbArc
 50
102.1133972574184
 51
257.8856634598607
  0
ARC
  5
978
330
1F
100
AcDbEntity
  8
OBJECT1
100
AcDbCircle
 10
23.5251535388046
 20
12.26843602379258
 30
0.0
 40
0.0484875855828642
100
AcDbArc
 50
102.1143365401392
 51
257.8866027425815
  0
LINE
  5
979
330
1F
100
AcDbEntity
  8
OBJECT2
100
AcDbLine
 10
22.10431063003472
 20
12.01252708564347
 30
0.0
 11
22.19505981537228
 21
12.01252708564347
 31
0.0
  0
LINE
  5
97A
330
1F
100
AcDbEntity
  8
OBJECT2
100
AcDbLine
 10
21.79452708091298
 20
11.41081550151411
 30
0.0
 11
22.83612388878761
 21
11.41081550151411
 31
0.0
  0
LINE
  5
97B
330
1F
100
AcDbEntity
  8
OBJECT2
100
AcDbLine
 10
23.47718796220289
 20
10.20739233325537
 30
0.0
 11
23.47718796220289
 21
10.80910391738474
 31
0.0
  0
LINE
  5
97C
330
1F
100
AcDbEntity
  8
OBJECT2
100
AcDbLine
 10
22.19505981537228
 20
10.80910391738474
 30
0.0
 11
23.47718796220289
 21
10.80910391738474
 31
0.0
  0
LINE
  5
97D
330
1F
100
AcDbEntity
  8
OBJECT2
100
AcDbLine
 10
23.47718796220289
 20
10.20739233325537
 30
0.0
 11
22.19505981537228
 21
10.20739233325537
 31
0.0
  0
LINE
  5
97E
330
1F
100
AcDbEntity
  8
OBJECT2
100
AcDbLine
 10
22.19505981537228
 20
10.20739233325537
 30
0.0
 11
22.19505981537228
 21
10.80910391738474
 31
0.0
  0
LINE
  5
97F
330
1F
100
AcDbEntity
  8
OBJECT2
100
AcDbLine
 10
21.60088836208945
 20
10.80910391738474
 30
0.0
 11
22.19505981537228
 21
10.80910391738474
 31
0.0
  0
LINE
  5
980
330
1F
100
AcDbEntity
  8
OBJECT2
100
AcDbLine
 10
22.19505981537228
 20
10.20739233325537
 30
0.0
 11
21.50640567151783
 21
10.20739233325537
 31
0.0
  0
LINE
  5
981
330
1F
100
AcDbEntity
  8
OBJECT2
100
AcDbLine
 10
22.83612388878761
 20
10.80910391738474
 30
0.0
 11
22.83612388878761
 21
11.41081550151411
 31
0.0
  0
LINE
  5
982
330
1F
100
AcDbEntity
  8
OBJECT2
  6
DASHED
100
AcDbLine
 10
16.03291662153515
 20
13.4620992085875
 30
0.0
 11
9.851532307266054
 21
13.4620992085875
 31
0.0
  0
ARC
  5
983
330
1F
100
AcDbEntity
  8
OBJECT1
100
AcDbCircle
 10
13.22726533112405
 20
12.86207269802446
 30
0.0
 40
0.049641409272806
100
AcDbArc
 50
225.0679929999961
 51
269.9183349999817
  0
LINE
  5
984
330
1F
100
AcDbEntity
  8
OBJECT1
100
AcDbLine
 10
13.21149343893447
 20
12.9475694342387
 30
0.0
 11
13.22234112459403
 21
12.95841739984578
 31
0.0
  0
LINE
  5
985
330
1F
100
AcDbEntity
  8
OBJECT1
100
AcDbLine
 10
13.22234112459403
 20
12.97591411856684
 30
0.0
 11
13.13237369679901
 21
13.06588154636183
 31
0.0
  0
TEXT
  5
986
330
1F
100
AcDbEntity
  8
TEXT
100
AcDbText
 10
14.19442019464383
 20
13.97763252054511
 30
0.0
 40
0.2109375
  1
PROTECTIVE
  7
ROMANS
 11
14.19442019464383
 21
14.08310127054511
 31
0.0
100
AcDbText
 73
     2
  0
TEXT
  5
987
330
1F
100
AcDbEntity
  8
TEXT
100
AcDbText
 10
14.19442019464383
 20
13.65271951705871
 30
0.0
 40
0.2109375
  1
ENCLOSURE
  7
ROMANS
 11
14.19442019464383
 21
13.75818826705871
 31
0.0
100
AcDbText
 73
     2
  0
ARC
  5
988
330
1F
100
AcDbEntity
  8
OBJECT1
100
AcDbCircle
 10
13.18668043228671
 20
13.15518451876665
 30
0.0
 40
0.0123738300311589
100
AcDbArc
 50
315.0122379999954
 51
44.99213399999552
  0
LINE
  5
989
330
1F
100
AcDbEntity
  8
OBJECT1
100
AcDbLine
 10
12.8983014739586
 20
13.29995292935977
 30
0.0
 11
12.98826974159612
 21
13.20998466172229
 31
0.0
  0
LINE
  5
98A
330
1F
100
AcDbEntity
  8
OBJECT1
100
AcDbLine
 10
13.06882491453537
 20
13.27304367583551
 30
0.0
 11
13.00576632034336
 21
13.20998480169605
 31
0.0
  0
ARC
  5
98B
330
1F
100
AcDbEntity
  8
OBJECT1
100
AcDbCircle
 10
13.07757313392215
 20
13.26429377676376
 30
0.0
 40
0.0123730382200577
100
AcDbArc
 50
45.00065600000828
 51
134.9947549999977
  0
LINE
  5
98C
330
1F
100
AcDbEntity
  8
OBJECT2
100
AcDbLine
 10
13.14087640222873
 20
13.21848778707322
 30
0.0
 11
13.06032178918446
 21
13.13793317402892
 31
0.0
  0
ARC
  5
98D
330
1F
100
AcDbEntity
  8
OBJECT1
100
AcDbCircle
 10
12.99701796098284
 20
13.21873512068909
 30
0.0
 40
0.0123736320783836
100
AcDbArc
 50
225.0074160000098
 51
314.9930109999982
  0
ARC
  5
98E
330
1F
100
AcDbEntity
  8
OBJECT1
100
AcDbCircle
 10
12.88955269467677
 20
13.29119995086551
 30
0.0
 40
0.0123758095589119
100
AcDbArc
 50
45.01311499998924
 51
134.9842679999901
  0
LINE
  5
98F
330
1F
100
AcDbEntity
  8
OBJECT1
100
AcDbLine
 10
12.87389082185457
 20
13.2851001048112
 30
0.0
 11
12.86561417403076
 21
13.28509982486371
 31
0.0
  0
LINE
  5
990
330
1F
100
AcDbEntity
  8
OBJECT1
100
AcDbLine
 10
12.86995678963043
 20
13.28910608354272
 30
0.0
 11
12.88080419534252
 21
13.29995348925478
 31
0.0
  0
ARC
  5
991
330
1F
100
AcDbEntity
  8
OBJECT1
100
AcDbCircle
 10
12.76096699922884
 20
13.16367791594201
 30
0.0
 40
0.0118932006927331
100
AcDbArc
 50
315.0263670000027
 51
44.97453300000158
  0
LINE
  5
992
330
1F
100
AcDbEntity
  8
OBJECT1
100
AcDbLine
 10
12.76938068135361
 20
13.17208403948435
 30
0.0
 11
12.76938068135361
 21
13.17208403948435
 31
0.0
  0
ARC
  5
993
330
1F
100
AcDbEntity
  8
OBJECT1
100
AcDbCircle
 10
12.77776664867602
 20
13.18047840523172
 30
0.0
 40
0.011865289351416
100
AcDbArc
 50
134.9735640000043
 51
225.0291750000006
  0
LINE
  5
994
330
1F
100
AcDbEntity
  8
OBJECT1
100
AcDbLine
 10
12.86561417403076
 20
13.28509982486371
 30
0.0
 11
12.76938026143236
 21
13.18887235105781
 31
0.0
  0
ARC
  5
995
330
1F
100
AcDbEntity
  8
OBJECT1
100
AcDbCircle
 10
13.14112261605457
 20
13.07462990572235
 30
0.0
 40
0.0123724443617318
100
AcDbArc
 50
135.0052489999898
 51
224.9978030000032
  0
LINE
  5
996
330
1F
100
AcDbEntity
  8
OBJECT2
100
AcDbLine
 10
13.13237369679901
 20
13.06588154636183
 30
0.0
 11
12.98826974159612
 21
13.20998466172229
 31
0.0
  0
LINE
  5
997
330
1F
100
AcDbEntity
  8
OBJECT1
100
AcDbLine
 10
13.19543187106977
 20
13.14643671930111
 30
0.0
 11
13.13237327687776
 21
13.08337784516165
 31
0.0
  0
LINE
  5
998
330
1F
100
AcDbEntity
  8
OBJECT1
100
AcDbLine
 10
13.08632233312517
 20
13.27304297596677
 30
0.0
 11
13.195431171201
 21
13.16393301810093
 31
0.0
  0
LINE
  5
9A3
330
1F
100
AcDbEntity
  8
OBJECT2
100
AcDbLine
 10
12.52068288134733
 20
12.73126946844575
 30
0.0
 11
12.52068344124237
 21
12.59667518982832
 31
0.0
  0
LINE
  5
9A4
330
1F
100
AcDbEntity
  8
OBJECT2
100
AcDbLine
 10
12.35259382181579
 20
12.7628642377136
 30
0.0
 11
12.35259369473511
 21
12.56509840608797
 31
0.0
  0
LINE
  5
9A5
330
1F
100
AcDbEntity
  8
OBJECT2
100
AcDbLine
 10
12.38606480719251
 20
12.76286420326976
 30
0.0
 11
12.38606452724493
 21
12.56509837164426
 31
0.0
  0
LINE
  5
9A6
330
1F
100
AcDbEntity
  8
OBJECT2
100
AcDbLine
 10
12.36932928271876
 20
12.73197661582957
 30
0.0
 11
12.36932914274503
 21
12.59595642462324
 31
0.0
  0
LINE
  5
9A7
330
1F
100
AcDbEntity
  8
OBJECT2
100
AcDbLine
 10
12.4217064630698
 20
12.59666301211207
 30
0.0
 11
12.4217064630698
 21
12.73125785062452
 31
0.0
  0
LINE
  5
9A8
330
1F
100
AcDbEntity
  8
OBJECT2
100
AcDbLine
 10
12.31911369713164
 20
12.56509853213802
 30
0.0
 11
12.31911341718412
 21
12.76285792497102
 31
0.0
  0
LINE
  5
9A9
330
1F
100
AcDbEntity
  8
OBJECT2
100
AcDbLine
 10
12.33585832121728
 20
12.73197663733739
 30
0.0
 11
12.33585828638293
 21
12.59595644613099
 31
0.0
  0
ARC
  5
9AB
330
1F
100
AcDbEntity
  8
OBJECT2
100
AcDbCircle
 10
12.66452466571702
 20
12.63911998986562
 30
0.0
 40
0.123606067857689
100
AcDbArc
 50
269.9755550000029
 51
307.6321560000125
  0
LINE
  5
9AD
330
1F
100
AcDbEntity
  8
OBJECT1
100
AcDbLine
 10
12.63748439204469
 20
12.48977752667242
 30
0.0
 11
12.53900334086746
 21
12.48977108787991
 31
0.0
  0
LINE
  5
9AE
330
1F
100
AcDbEntity
  8
OBJECT2
100
AcDbLine
 10
12.63797612454593
 20
12.51550777170751
 30
0.0
 11
12.66447189561341
 21
12.51551379057876
 31
0.0
  0
ARC
  5
9AF
330
1F
100
AcDbEntity
  8
OBJECT1
100
AcDbCircle
 10
12.63797304512339
 20
12.50214811713459
 30
0.0
 40
0.012375215700586
100
AcDbArc
 50
270.0142209999826
 51
359.9864040000009
  0
LINE
  5
9B0
330
1F
100
AcDbEntity
  8
OBJECT1
100
AcDbLine
 10
12.63748439204469
 20
12.48977752667242
 30
0.0
 11
12.63748439204469
 21
12.48977752667242
 31
0.0
  0
LINE
  5
9B1
330
1F
100
AcDbEntity
  8
OBJECT1
100
AcDbLine
 10
12.65034784439298
 20
12.50313577191297
 30
0.0
 11
12.65034826431423
 21
12.50214517768585
 31
0.0
  0
ARC
  5
9B2
330
1F
100
AcDbEntity
  8
OBJECT1
100
AcDbCircle
 10
12.6379421109247
 20
12.50310287808176
 30
0.0
 40
0.0124049086168808
100
AcDbArc
 50
0.1522830000021525
 51
89.84215900000046
  0
LINE
  5
9B3
330
1F
100
AcDbEntity
  8
OBJECT1
100
AcDbLine
 10
12.31911367439514
 20
12.56509859216386
 30
0.0
 11
12.38606452724493
 21
12.56509837164426
 31
0.0
  0
LINE
  5
9B4
330
1F
100
AcDbEntity
  8
OBJECT2
100
AcDbLine
 10
12.50880638862698
 20
12.58478637941797
 30
0.0
 11
12.43358351568519
 21
12.58478651939169
 31
0.0
  0
ARC
  5
9B5
330
1F
100
AcDbEntity
  8
OBJECT2
100
AcDbCircle
 10
12.50879169138324
 20
12.59667784932954
 30
0.0
 40
0.0118914191177555
100
AcDbArc
 50
270.0707549999874
 51
359.9871370000004
  0
LINE
  5
9B6
330
1F
100
AcDbEntity
  8
OBJECT1
100
AcDbLine
 10
12.38606480719251
 20
12.56509879156551
 30
0.0
 11
12.38606480719251
 21
12.54717487296014
 31
0.0
  0
LINE
  5
9B7
330
1F
100
AcDbEntity
  8
OBJECT1
100
AcDbLine
 10
12.38606480719251
 20
12.54717487296014
 30
0.0
 11
12.3908489699858
 21
12.54718117177889
 31
0.0
  0
ARC
  5
9B8
330
1F
100
AcDbEntity
  8
OBJECT1
100
AcDbCircle
 10
12.39080599804466
 20
12.53473848524073
 30
0.0
 40
0.0124425196441876
100
AcDbArc
 50
45.12865400000751
 51
89.80207100000409
  0
ARC
  5
9B9
330
1F
100
AcDbEntity
  8
OBJECT2
100
AcDbCircle
 10
12.4335975130601
 20
12.59667784932954
 30
0.0
 40
0.0118910232122049
100
AcDbArc
 50
180.0713809999991
 51
269.9324649999982
  0
LINE
  5
9BA
330
1F
100
AcDbEntity
  8
OBJECT2
100
AcDbLine
 10
12.42803803566683
 20
12.52774721636104
 30
0.0
 11
12.42803747577179
 21
12.58616386108944
 31
0.0
  0
ARC
  5
9BB
330
1F
100
AcDbEntity
  8
OBJECT1
100
AcDbCircle
 10
12.43276047003653
 20
12.5278925091133
 30
0.0
 40
0.0123787788505414
100
AcDbArc
 50
225.125823999993
 51
270.0617829999891
  0
LINE
  5
9BC
330
1F
100
AcDbEntity
  8
OBJECT1
100
AcDbLine
 10
12.4240266679459
 20
12.51912035421527
 30
0.0
 11
12.39958417181385
 21
12.54355641155488
 31
0.0
  0
LINE
  5
9BD
330
1F
100
AcDbEntity
  8
OBJECT1
100
AcDbLine
 10
12.63797612454593
 20
12.51550777170751
 30
0.0
 11
12.43277390751652
 21
12.51551379057873
 31
0.0
  0
LINE
  5
9C0
330
1F
100
AcDbEntity
  8
OBJECT2
100
AcDbLine
 10
13.00311261974291
 20
12.61190304731174
 30
0.0
 11
12.94381694813147
 21
12.55260767410993
 31
0.0
  0
LINE
  5
9C1
330
1F
100
AcDbEntity
  8
OBJECT2
100
AcDbLine
 10
12.79780948990541
 20
12.61987905824868
 30
0.0
 11
12.78256242929064
 21
12.60461912004893
 31
0.0
  0
LINE
  5
9C2
330
1F
100
AcDbEntity
  8
OBJECT2
100
AcDbLine
 10
12.71571810506243
 20
12.61779470914087
 30
0.0
 11
12.75832149535822
 21
12.57519131884508
 31
0.0
  0
LINE
  5
9C3
330
1F
100
AcDbEntity
  8
OBJECT2
100
AcDbLine
 10
12.96865053092035
 20
12.50473665168907
 30
0.0
 11
12.95349949229798
 21
12.48958561306662
 31
0.0
  0
ARC
  5
9CF
330
1F
100
AcDbEntity
  8
OBJECT1
100
AcDbCircle
 10
12.32426805563793
 20
12.91335235280725
 30
0.0
 40
0.0039204547147947
100
AcDbArc
 50
359.5551299999997
 51
90.45261399998732
  0
LINE
  5
9D0
330
1F
100
AcDbEntity
  8
OBJECT1
100
AcDbLine
 10
12.31911340585437
 20
12.76285795455954
 30
0.0
 11
12.38606480719251
 21
12.76286420326976
 31
0.0
  0
LINE
  5
9D1
330
1F
100
AcDbEntity
  8
OBJECT2
100
AcDbLine
 10
12.5088066685745
 20
12.74315212001108
 30
0.0
 11
12.4335832357376
 21
12.74314638108735
 31
0.0
  0
ARC
  5
9D2
330
1F
100
AcDbEntity
  8
OBJECT1
100
AcDbCircle
 10
12.47325011673707
 20
12.83224359208004
 30
0.0
 40
0.0198123014685656
100
AcDbArc
 50
270.1022949999984
 51
44.93230399999946
  0
ARC
  5
9D3
330
1F
100
AcDbEntity
  8
OBJECT2
100
AcDbCircle
 10
12.50880358915203
 20
12.73127170802573
 30
0.0
 40
0.0118803337623387
100
AcDbArc
 50
359.989058999997
 51
89.98519499998669
  0
LINE
  5
9D4
330
1F
100
AcDbEntity
  8
OBJECT2
100
AcDbLine
 10
12.52068302132112
 20
12.66396631026578
 30
0.0
 11
12.52068302132112
 21
12.66396631026578
 31
0.0
  0
LINE
  5
9D5
330
1F
100
AcDbEntity
  8
OBJECT1
100
AcDbLine
 10
12.38606452724493
 20
12.76287638098597
 30
0.0
 11
12.38606480719251
 21
12.78075774757141
 31
0.0
  0
LINE
  5
9D6
330
1F
100
AcDbEntity
  8
OBJECT1
100
AcDbLine
 10
12.38606480719251
 20
12.78075774757141
 30
0.0
 11
12.39084910995959
 21
12.78075774757141
 31
0.0
  0
ARC
  5
9D7
330
1F
100
AcDbEntity
  8
OBJECT1
100
AcDbCircle
 10
12.39084687037955
 20
12.79314654421594
 30
0.0
 40
0.0123886764893063
100
AcDbArc
 50
270.0104980000053
 51
314.933640000008
  0
ARC
  5
9D8
330
1F
100
AcDbEntity
  8
OBJECT1
100
AcDbCircle
 10
12.4906000029946
 20
12.85971106091836
 30
0.0
 40
0.0118781562818104
100
AcDbArc
 50
134.9936260000023
 51
225.0072939999969
  0
LINE
  5
9D9
330
1F
100
AcDbEntity
  8
OBJECT1
100
AcDbLine
 10
12.48220199792974
 20
12.85131081627349
 30
0.0
 11
12.4872760463589
 21
12.8462364878969
 31
0.0
  0
LINE
  5
9DA
330
1F
100
AcDbEntity
  8
OBJECT1
100
AcDbLine
 10
12.43277362756894
 20
12.81244318538528
 30
0.0
 11
12.47328553009571
 21
12.81243072772154
 31
0.0
  0
ARC
  5
9DB
330
1F
100
AcDbEntity
  8
OBJECT1
100
AcDbCircle
 10
12.43275109179524
 20
12.80013319396188
 30
0.0
 40
0.0123100892375126
100
AcDbArc
 50
89.89499700000331
 51
135.2099909999897
  0
ARC
  5
9DC
330
1F
100
AcDbEntity
  8
OBJECT2
100
AcDbCircle
 10
12.43357777676136
 20
12.73127506739573
 30
0.0
 40
0.011871227934675
100
AcDbArc
 50
89.9729419999865
 51
180.0837399999982
  0
LINE
  5
9DD
330
1F
100
AcDbEntity
  8
OBJECT2
100
AcDbLine
 10
12.42804965348804
 20
12.80018610403929
 30
0.0
 11
12.42802543802934
 21
12.74178751592459
 31
0.0
  0
LINE
  5
9DE
330
1F
100
AcDbEntity
  8
OBJECT1
100
AcDbLine
 10
12.42401463020345
 20
12.80880582752378
 30
0.0
 11
12.39959676945134
 21
12.78437620897667
 31
0.0
  0
LINE
  5
9DF
330
1F
100
AcDbEntity
  8
OBJECT1
100
AcDbLine
 10
12.3281883921778
 20
12.91332191295322
 30
0.0
 11
12.3281872479952
 21
12.89674461358829
 31
0.0
  0
ARC
  5
9E0
330
1F
100
AcDbEntity
  8
OBJECT1
100
AcDbCircle
 10
12.32424666289358
 20
12.89672272410446
 30
0.0
 40
0.0039406458978752
100
AcDbArc
 50
269.8602600000039
 51
0.3182679999991578
  0
LINE
  5
9E1
330
1F
100
AcDbEntity
  8
OBJECT1
100
AcDbLine
 10
12.31911341718412
 20
12.76285792497102
 30
0.0
 11
12.31911341718412
 21
12.76285792497102
 31
0.0
  0
LINE
  5
9E2
330
1F
100
AcDbEntity
  8
OBJECT2
100
AcDbLine
 10
12.6233477479051
 20
12.71016506629813
 30
0.0
 11
12.4872760463589
 21
12.8462364878969
 31
0.0
  0
LINE
  5
9E3
330
1F
100
AcDbEntity
  8
OBJECT1
100
AcDbLine
 10
13.21149343893447
 20
12.9475694342387
 30
0.0
 11
13.21149343893447
 21
12.9475694342387
 31
0.0
  0
LINE
  5
9E4
330
1F
100
AcDbEntity
  8
OBJECT1
100
AcDbLine
 10
13.2074887199667
 20
12.95162286407138
 30
0.0
 11
13.20748913988795
 21
12.94391380980287
 31
0.0
  0
ARC
  5
9EB
330
1F
100
AcDbEntity
  8
OBJECT1
100
AcDbCircle
 10
13.15899803375568
 20
12.87777985235474
 30
0.0
 40
0.0124755777576625
100
AcDbArc
 50
135.0312190000084
 51
224.9687809999915
  0
LINE
  5
9EC
330
1F
100
AcDbEntity
  8
OBJECT2
100
AcDbLine
 10
13.16632551958223
 20
12.77511512577073
 30
0.0
 11
13.1070298479708
 21
12.71581975256891
 31
0.0
  0
LINE
  5
9F6
330
1F
100
AcDbEntity
  8
OBJECT1
100
AcDbLine
 10
13.20748913988795
 20
12.94391380980287
 30
0.0
 11
13.1501717090165
 21
12.88659637893142
 31
0.0
  0
LINE
  5
9F7
330
1F
100
AcDbEntity
  8
OBJECT1
100
AcDbLine
 10
13.15017156904277
 20
12.86896290585682
 30
0.0
 11
13.19220526617699
 21
12.82692920872256
 31
0.0
  0
LINE
  5
9F8
330
1F
100
AcDbEntity
  8
OBJECT2
100
AcDbLine
 10
12.24147389745251
 20
12.52788567091954
 30
0.0
 11
12.24148635511621
 21
12.80005860847325
 31
0.0
  0
LINE
  5
9F9
330
1F
100
AcDbEntity
  8
OBJECT2
100
AcDbLine
 10
12.12925582247303
 20
12.52787363317706
 30
0.0
 11
12.12925540255178
 21
12.77729635723341
 31
0.0
  0
LINE
  5
9FE
330
1F
100
AcDbEntity
  8
OBJECT2
100
AcDbLine
 10
11.80456221447868
 20
12.64109434012611
 30
0.0
 11
11.8169095788933
 21
12.59596232404073
 31
0.0
  0
LINE
  5
9FF
330
1F
100
AcDbEntity
  8
OBJECT2
100
AcDbLine
 10
11.80456070093924
 20
12.76286115375686
 30
0.0
 11
11.80456057385856
 21
12.56509532213123
 31
0.0
  0
LINE
  5
A00
330
1F
100
AcDbEntity
  8
OBJECT2
100
AcDbLine
 10
11.67999515597973
 20
12.76282173653339
 30
0.0
 11
11.67999515597973
 21
12.56508017684576
 31
0.0
  0
LINE
  5
A01
330
1F
100
AcDbEntity
  8
OBJECT2
100
AcDbLine
 10
11.77340095457946
 20
12.59601348985178
 30
0.0
 11
11.77340095457946
 21
12.73199734679614
 31
0.0
  0
LINE
  5
A02
330
1F
100
AcDbEntity
  8
OBJECT2
100
AcDbLine
 10
11.7111307521009
 20
12.59601348985178
 30
0.0
 11
11.7111307521009
 21
12.73199734679614
 31
0.0
  0
LINE
  5
A03
330
1F
100
AcDbEntity
  8
OBJECT2
100
AcDbLine
 10
11.74226535845822
 20
12.76286709234012
 30
0.0
 11
11.74226535845822
 21
12.56509544383062
 31
0.0
  0
LINE
  5
A04
330
1F
100
AcDbEntity
  8
OBJECT2
100
AcDbLine
 10
11.63051923522701
 20
12.53297203873949
 30
0.0
 11
11.63050696215498
 21
12.79488751274573
 31
0.0
  0
ARC
  5
A05
330
1F
100
AcDbEntity
  8
OBJECT1
100
AcDbCircle
 10
11.59972431583209
 20
12.49180617549386
 30
0.0
 40
0.2969436135009449
100
AcDbArc
 50
90.00047300000593
 51
180.0007319999981
  0
LINE
  5
A07
330
1F
100
AcDbEntity
  8
OBJECT2
100
AcDbLine
 10
12.30660872227482
 20
12.59811246081093
 30
0.0
 11
12.24148593519496
 21
12.59810686186096
 31
0.0
  0
LINE
  5
A08
330
1F
100
AcDbEntity
  8
OBJECT1
100
AcDbLine
 10
12.30654783369367
 20
12.53224767288359
 30
0.0
 11
12.24209034184654
 21
12.53224725296234
 31
0.0
  0
LINE
  5
A09
330
1F
100
AcDbEntity
  8
OBJECT1
100
AcDbLine
 10
12.12878425091011
 20
12.53203575262644
 30
0.0
 11
11.99464936613942
 21
12.53204807031641
 31
0.0
  0
LINE
  5
A0A
330
1F
100
AcDbEntity
  8
OBJECT1
100
AcDbLine
 10
11.88455749241889
 20
12.54025753074035
 30
0.0
 11
11.99463732839696
 21
12.54023961410037
 31
0.0
  0
LINE
  5
A0D
330
1F
100
AcDbEntity
  8
OBJECT2
100
AcDbLine
 10
11.99464924601036
 20
12.61380444571486
 30
0.0
 11
11.99464936613942
 21
12.53204807031641
 31
0.0
  0
LINE
  5
A0E
330
1F
100
AcDbEntity
  8
OBJECT2
100
AcDbLine
 10
11.88578659485715
 20
12.61251171209035
 30
0.0
 11
11.88125873105818
 21
12.59596218406697
 31
0.0
  0
LINE
  5
A0F
330
1F
100
AcDbEntity
  8
OBJECT1
100
AcDbLine
 10
11.88455749241889
 20
12.54025753074035
 30
0.0
 11
11.88006307528763
 21
12.52787335322957
 31
0.0
  0
LINE
  5
A10
330
1F
100
AcDbEntity
  8
OBJECT2
100
AcDbLine
 10
11.88125873105818
 20
12.59596218406697
 30
0.0
 11
11.89361925300522
 21
12.56509237329303
 31
0.0
  0
LINE
  5
A11
330
1F
100
AcDbEntity
  8
OBJECT1
100
AcDbLine
 10
12.24147389745251
 20
12.52788567091954
 30
0.0
 11
12.12925582247303
 21
12.52787363317706
 31
0.0
  0
LINE
  5
A12
330
1F
100
AcDbEntity
  8
OBJECT1
100
AcDbLine
 10
11.80456080398398
 20
12.56506200650775
 30
0.0
 11
11.67999515597973
 21
12.56503801290462
 31
0.0
  0
LINE
  5
A13
330
1F
100
AcDbEntity
  8
OBJECT1
100
AcDbLine
 10
11.81809403676384
 20
12.52786145546085
 30
0.0
 11
11.80454975681498
 21
12.56509237329303
 31
0.0
  0
LINE
  5
A14
330
1F
100
AcDbEntity
  8
OBJECT2
100
AcDbLine
 10
11.8169095788933
 20
12.59596232404073
 30
0.0
 11
11.80454975681498
 21
12.56509237329303
 31
0.0
  0
LINE
  5
A15
330
1F
100
AcDbEntity
  8
OBJECT1
100
AcDbLine
 10
11.63664468590592
 20
12.52537243374299
 30
0.0
 11
11.67386970530082
 21
12.52537243374299
 31
0.0
  0
LINE
  5
A16
330
1F
100
AcDbEntity
  8
OBJECT1
100
AcDbLine
 10
11.67999515597973
 20
12.56508017684576
 30
0.0
 11
11.67999515597973
 21
12.53150421891064
 31
0.0
  0
ARC
  5
A17
330
1F
100
AcDbEntity
  8
OBJECT1
100
AcDbCircle
 10
11.67388831286175
 20
12.53146759764721
 30
0.0
 40
0.0060949659514531
100
AcDbArc
 50
269.8251949999913
 51
0.1739159999989262
  0
ARC
  5
A18
330
1F
100
AcDbEntity
  8
OBJECT1
100
AcDbCircle
 10
11.62438309509833
 20
12.53296174519517
 30
0.0
 40
0.00613594217594
100
AcDbArc
 50
0.0969529999987143
 51
90.12868499998496
  0
LINE
  5
A19
330
1F
100
AcDbEntity
  8
OBJECT1
100
AcDbLine
 10
11.63051923522701
 20
12.53150421891064
 30
0.0
 11
11.63051923522701
 21
12.53297203873949
 31
0.0
  0
ARC
  5
A1A
330
1F
100
AcDbEntity
  8
OBJECT1
100
AcDbCircle
 10
11.63663459031436
 20
12.53148818473586
 30
0.0
 40
0.0061155530400842
100
AcDbArc
 50
179.8496549999984
 51
270.0955200000048
  0
LINE
  5
A1B
330
1F
100
AcDbEntity
  8
OBJECT1
100
AcDbLine
 10
11.6243694363568
 20
12.5390976873711
 30
0.0
 11
11.59974609063741
 21
12.5391097624904
 31
0.0
  0
ARC
  5
A1C
330
1F
100
AcDbEntity
  8
OBJECT1
100
AcDbCircle
 10
11.59974727835409
 20
12.49179528809124
 30
0.0
 40
0.0473144743991675
100
AcDbArc
 50
90.00137299999236
 51
179.998627000001
  0
LINE
  5
A1D
330
1F
100
AcDbEntity
  8
OBJECT1
100
AcDbLine
 10
11.81810537463759
 20
12.52787391312458
 30
0.0
 11
11.88006307528763
 21
12.52787335322957
 31
0.0
  0
LINE
  5
A1E
330
1F
100
AcDbEntity
  8
OBJECT1
100
AcDbLine
 10
11.88006307528763
 20
12.52787335322957
 30
0.0
 11
11.81809403676384
 21
12.52786145546085
 31
0.0
  0
LINE
  5
A1F
330
1F
100
AcDbEntity
  8
OBJECT2
100
AcDbLine
 10
11.88125873105818
 20
12.59596218406697
 30
0.0
 11
11.8169095788933
 21
12.59596232404073
 31
0.0
  0
LINE
  5
A20
330
1F
100
AcDbEntity
  8
OBJECT1
100
AcDbLine
 10
12.24209006189902
 20
12.79567281097176
 30
0.0
 11
12.30654825361492
 21
12.79567281097176
 31
0.0
  0
LINE
  5
A21
330
1F
100
AcDbEntity
  8
OBJECT2
100
AcDbLine
 10
12.3065842268686
 20
12.72981950089189
 30
0.0
 11
12.24148621514248
 21
12.72981936091816
 31
0.0
  0
ARC
  5
A22
330
1F
100
AcDbEntity
  8
OBJECT1
100
AcDbCircle
 10
11.97782249282121
 20
12.91333619874139
 30
0.0
 40
0.0039600452698545
100
AcDbArc
 50
359.9652249999995
 51
90.04248799999928
  0
LINE
  5
A23
330
1F
100
AcDbEntity
  8
OBJECT2
100
AcDbLine
 10
12.03794014574261
 20
12.91333393521234
 30
0.0
 11
12.05106086512468
 21
12.91711560600984
 31
0.0
  0
LINE
  5
A24
330
1F
100
AcDbEntity
  8
OBJECT2
100
AcDbLine
 10
12.11044430854271
 20
12.9171157459836
 30
0.0
 11
12.12357804548347
 21
12.91333365526485
 31
0.0
  0
LINE
  5
A25
330
1F
100
AcDbEntity
  8
OBJECT2
100
AcDbLine
 10
12.08075895563934
 20
12.91333365526485
 30
0.0
 11
12.11044430854271
 21
12.9171157459836
 31
0.0
  0
ARC
  5
A26
330
1F
100
AcDbEntity
  8
OBJECT1
100
AcDbCircle
 10
12.18367576186919
 20
12.91333177666604
 30
0.0
 40
0.0039412397562011
100
AcDbArc
 50
89.85251200001178
 51
180.1436159999986
  0
LINE
  5
A27
330
1F
100
AcDbEntity
  8
OBJECT2
100
AcDbLine
 10
12.05106086512468
 20
12.91711560600984
 30
0.0
 11
12.08075895563934
 21
12.91333365526485
 31
0.0
  0
LINE
  5
A28
330
1F
100
AcDbEntity
  8
OBJECT1
100
AcDbLine
 10
12.13617946225395
 20
12.95939719665494
 30
0.0
 11
12.13617890235891
 21
12.91676539168792
 31
0.0
  0
LINE
  5
A29
330
1F
100
AcDbEntity
  8
OBJECT1
100
AcDbLine
 10
12.02532641128222
 20
12.91677099063792
 30
0.0
 11
12.0253261313347
 21
12.95940279560491
 31
0.0
  0
ARC
  5
A2A
330
1F
100
AcDbEntity
  8
OBJECT2
100
AcDbCircle
 10
12.08075939733824
 20
13.01358226492643
 30
0.0
 40
0.2260650386829718
100
AcDbArc
 50
250.8299409999988
 51
289.1694640000003
  0
LINE
  5
A2B
330
1F
100
AcDbEntity
  8
OBJECT2
100
AcDbLine
 10
12.05105630039363
 20
12.89674117368837
 30
0.0
 11
12.11044422798034
 21
12.89674297942122
 31
0.0
  0
LINE
  5
A2C
330
1F
100
AcDbEntity
  8
OBJECT2
100
AcDbLine
 10
12.12357804548347
 20
12.91333365526485
 30
0.0
 11
12.03794014574261
 21
12.91333393521234
 31
0.0
  0
LINE
  5
A2D
330
1F
100
AcDbEntity
  8
OBJECT2
100
AcDbLine
 10
12.04363049859194
 20
12.88028347339077
 30
0.0
 11
12.08075895563934
 21
12.88417964271556
 31
0.0
  0
LINE
  5
A2E
330
1F
100
AcDbEntity
  8
OBJECT2
100
AcDbLine
 10
12.13024723476494
 20
12.85945411966145
 30
0.0
 11
12.03125821884992
 21
12.8594481007902
 31
0.0
  0
LINE
  5
A2F
330
1F
100
AcDbEntity
  8
OBJECT2
100
AcDbLine
 10
12.03125849879737
 20
12.86934900400633
 30
0.0
 11
12.13023491707503
 21
12.86934886403257
 31
0.0
  0
LINE
  5
A30
330
1F
100
AcDbEntity
  8
OBJECT2
100
AcDbLine
 10
12.11044458849017
 20
12.88416760497308
 30
0.0
 11
12.05104882738217
 21
12.88417978268933
 31
0.0
  0
LINE
  5
A31
330
1F
100
AcDbEntity
  8
OBJECT1
100
AcDbLine
 10
12.11044422798034
 20
12.89674297942122
 30
0.0
 11
12.11044458849017
 21
12.88416760497308
 31
0.0
  0
LINE
  5
A32
330
1F
100
AcDbEntity
  8
OBJECT1
100
AcDbLine
 10
12.12357804548347
 20
12.91333365526485
 30
0.0
 11
12.13617890235891
 21
12.91676539168792
 31
0.0
  0
LINE
  5
A33
330
1F
100
AcDbEntity
  8
OBJECT1
100
AcDbLine
 10
12.11044458849017
 20
12.88416760497308
 30
0.0
 11
12.13445134633927
 21
12.88416746499932
 31
0.0
  0
LINE
  5
A34
330
1F
100
AcDbEntity
  8
OBJECT2
100
AcDbLine
 10
12.11787509499671
 20
12.88028347339077
 30
0.0
 11
12.13445134633927
 21
12.88416746499932
 31
0.0
  0
LINE
  5
A35
330
1F
100
AcDbEntity
  8
OBJECT2
100
AcDbLine
 10
12.11787509499671
 20
12.88028347339077
 30
0.0
 11
12.08075895563934
 21
12.88417964271556
 31
0.0
  0
LINE
  5
A36
330
1F
100
AcDbEntity
  8
OBJECT1
100
AcDbLine
 10
12.13023491707503
 20
12.86934886403257
 30
0.0
 11
12.13024723476494
 21
12.85945411966145
 31
0.0
  0
LINE
  5
A37
330
1F
100
AcDbEntity
  8
OBJECT2
100
AcDbLine
 10
12.11787509499671
 20
12.88028347339077
 30
0.0
 11
12.11787509499671
 21
12.86934900400633
 31
0.0
  0
ARC
  5
A38
330
1F
100
AcDbEntity
  8
OBJECT1
100
AcDbCircle
 10
12.18371525770593
 20
12.89675015895943
 30
0.0
 40
0.0039798405473844
100
AcDbArc
 50
180.0730289999989
 51
269.5811160000003
  0
LINE
  5
A39
330
1F
100
AcDbEntity
  8
OBJECT2
100
AcDbLine
 10
12.17973551389067
 20
12.91332189746986
 30
0.0
 11
12.17973495399562
 21
12.89674508623229
 31
0.0
  0
LINE
  5
A3A
330
1F
100
AcDbEntity
  8
OBJECT1
100
AcDbLine
 10
12.15102829755066
 20
12.88027157562201
 30
0.0
 11
12.15102829755066
 21
12.86935530282508
 31
0.0
  0
LINE
  5
A3B
330
1F
100
AcDbEntity
  8
OBJECT1
100
AcDbLine
 10
12.17973542039144
 20
12.89674508626996
 30
0.0
 11
12.11044422798034
 21
12.89674297942122
 31
0.0
  0
LINE
  5
A3C
330
1F
100
AcDbEntity
  8
OBJECT1
100
AcDbLine
 10
12.12357804548347
 20
12.91333365526485
 30
0.0
 11
12.17973551389067
 21
12.91332189746986
 31
0.0
  0
LINE
  5
A3D
330
1F
100
AcDbEntity
  8
OBJECT1
100
AcDbLine
 10
12.15102829755066
 20
12.88027157562201
 30
0.0
 11
12.13445134633927
 21
12.88416746499932
 31
0.0
  0
LINE
  5
A3E
330
1F
100
AcDbEntity
  8
OBJECT1
100
AcDbLine
 10
12.13024723476494
 20
12.85945411966145
 30
0.0
 11
12.15499123435408
 21
12.85944180197145
 31
0.0
  0
LINE
  5
A3F
330
1F
100
AcDbEntity
  8
OBJECT1
100
AcDbLine
 10
12.15102829755066
 20
12.86935530282508
 30
0.0
 11
12.13023491707503
 21
12.86934886403257
 31
0.0
  0
LINE
  5
A40
330
1F
100
AcDbEntity
  8
OBJECT1
100
AcDbLine
 10
12.15499123435408
 20
12.85944180197145
 30
0.0
 11
12.15499081443282
 21
12.80005247965593
 31
0.0
  0
LINE
  5
A42
330
1F
100
AcDbEntity
  8
OBJECT1
100
AcDbLine
 10
11.99464908619189
 20
12.78768072978122
 30
0.0
 11
11.88456967013514
 21
12.78768646870495
 31
0.0
  0
LINE
  5
A45
330
1F
100
AcDbEntity
  8
OBJECT1
100
AcDbLine
 10
12.00652681689827
 20
12.82012667500522
 30
0.0
 11
11.98067072586729
 21
12.83802637815189
 31
0.0
  0
ARC
  5
A46
330
1F
100
AcDbEntity
  8
OBJECT2
100
AcDbCircle
 10
11.99131642940596
 20
12.83963957561796
 30
0.0
 40
0.0039523251116178
100
AcDbArc
 50
179.827759000002
 51
269.8083949999804
  0
LINE
  5
A47
330
1F
100
AcDbEntity
  8
OBJECT2
100
AcDbLine
 10
12.00652681689827
 20
12.82014487159268
 30
0.0
 11
12.00652639697703
 21
12.84582571548897
 31
0.0
  0
ARC
  5
A48
330
1F
100
AcDbEntity
  8
OBJECT2
100
AcDbCircle
 10
11.99739212998841
 20
12.83963369672046
 30
0.0
 40
0.0039392602284481
100
AcDbArc
 50
269.4796449999864
 51
0.3456419999985644
  0
LINE
  5
A49
330
1F
100
AcDbEntity
  8
OBJECT2
100
AcDbLine
 10
11.99735643668218
 20
12.83569469542822
 30
0.0
 11
11.9913031318997
 21
12.83568797668825
 31
0.0
  0
LINE
  5
A4A
330
1F
100
AcDbEntity
  8
OBJECT1
100
AcDbLine
 10
12.05105630039363
 20
12.89674117368837
 30
0.0
 11
12.05104882738217
 21
12.88417978268933
 31
0.0
  0
LINE
  5
A4B
330
1F
100
AcDbEntity
  8
OBJECT1
100
AcDbLine
 10
12.05105630039363
 20
12.89674117368837
 30
0.0
 11
12.00133141122818
 21
12.89673966176719
 31
0.0
  0
LINE
  5
A4C
330
1F
100
AcDbEntity
  8
OBJECT1
100
AcDbLine
 10
11.98736427058125
 20
12.8967392370862
 30
0.0
 11
11.98178225741423
 21
12.89673906736104
 31
0.0
  0
ARC
  5
A4D
330
1F
100
AcDbEntity
  8
OBJECT1
100
AcDbCircle
 10
11.9778230306938
 20
12.89675361820739
 30
0.0
 40
0.0039592534587533
100
AcDbArc
 50
269.9459080000016
 51
359.7894290000001
  0
LINE
  5
A4E
330
1F
100
AcDbEntity
  8
OBJECT1
100
AcDbLine
 10
12.03794014574261
 20
12.91333393521234
 30
0.0
 11
11.98178253736168
 21
12.91333379523861
 31
0.0
  0
LINE
  5
A4F
330
1F
100
AcDbEntity
  8
OBJECT1
100
AcDbLine
 10
12.03794014574261
 20
12.91333393521234
 30
0.0
 11
12.02532641128222
 21
12.91677099063792
 31
0.0
  0
LINE
  5
A50
330
1F
100
AcDbEntity
  8
OBJECT1
100
AcDbLine
 10
12.05106086512468
 20
12.88418006263682
 30
0.0
 11
12.02705382732814
 21
12.88417992266305
 31
0.0
  0
LINE
  5
A51
330
1F
100
AcDbEntity
  8
OBJECT1
100
AcDbLine
 10
12.01047715606426
 20
12.88025911795828
 30
0.0
 11
12.02705382732814
 21
12.88417992266305
 31
0.0
  0
LINE
  5
A52
330
1F
100
AcDbEntity
  8
OBJECT2
100
AcDbLine
 10
12.04363049859194
 20
12.88028347339077
 30
0.0
 11
12.02705382732814
 21
12.88417992266305
 31
0.0
  0
LINE
  5
A53
330
1F
100
AcDbEntity
  8
OBJECT2
100
AcDbLine
 10
11.98178253736168
 20
12.91333379523861
 30
0.0
 11
11.98178225741423
 21
12.89673906736104
 31
0.0
  0
LINE
  5
A54
330
1F
100
AcDbEntity
  8
OBJECT2
100
AcDbLine
 10
11.98735251627997
 20
12.85944659702764
 30
0.0
 11
11.98736412215303
 21
12.83965145697137
 31
0.0
  0
LINE
  5
A55
330
1F
100
AcDbEntity
  8
OBJECT1
100
AcDbLine
 10
11.98294256447017
 20
12.85944800355249
 30
0.0
 11
11.98735251627997
 21
12.85944659702764
 31
0.0
  0
LINE
  5
A56
330
1F
100
AcDbEntity
  8
OBJECT2
100
AcDbLine
 10
12.00133085133314
 20
12.83965735228418
 30
0.0
 11
12.00133141122818
 21
12.85944208191897
 31
0.0
  0
LINE
  5
A57
330
1F
100
AcDbEntity
  8
OBJECT1
100
AcDbLine
 10
12.00133141122818
 20
12.85944208191897
 30
0.0
 11
12.03125821884992
 21
12.8594481007902
 31
0.0
  0
LINE
  5
A58
330
1F
100
AcDbEntity
  8
OBJECT1
100
AcDbLine
 10
12.03125849879737
 20
12.86934900400633
 30
0.0
 11
12.03125821884992
 21
12.8594481007902
 31
0.0
  0
LINE
  5
A59
330
1F
100
AcDbEntity
  8
OBJECT1
100
AcDbLine
 10
12.01047757598551
 20
12.86936146167006
 30
0.0
 11
12.03125849879737
 21
12.86934900400633
 31
0.0
  0
LINE
  5
A5A
330
1F
100
AcDbEntity
  8
OBJECT1
100
AcDbLine
 10
11.97896738530641
 20
12.84127614870026
 30
0.0
 11
11.97897914310134
 21
12.85549104288424
 31
0.0
  0
ARC
  5
A5B
330
1F
100
AcDbEntity
  8
OBJECT1
100
AcDbCircle
 10
11.98307393517705
 20
12.84135761342262
 30
0.0
 40
0.0041073221346769
100
AcDbArc
 50
181.1378170000003
 51
234.1926269999939
  0
ARC
  5
A5C
330
1F
100
AcDbEntity
  8
OBJECT1
100
AcDbCircle
 10
11.98292948226733
 20
12.85549748167672
 30
0.0
 40
0.0039505435366401
100
AcDbArc
 50
89.81026499999705
 51
180.0929260000021
  0
LINE
  5
A5D
330
1F
100
AcDbEntity
  8
OBJECT1
100
AcDbLine
 10
12.00133141122818
 20
12.89673966176719
 30
0.0
 11
12.00133141122818
 21
12.85944208191897
 31
0.0
  0
LINE
  5
A5E
330
1F
100
AcDbEntity
  8
OBJECT1
100
AcDbLine
 10
12.01047715606426
 20
12.88025911795828
 30
0.0
 11
12.01047757598551
 21
12.86936146167006
 31
0.0
  0
LINE
  5
A5F
330
1F
100
AcDbEntity
  8
OBJECT2
100
AcDbLine
 10
12.04363049859194
 20
12.88028347339077
 30
0.0
 11
12.04363049859194
 21
12.86934928395382
 31
0.0
  0
LINE
  5
A60
330
1F
100
AcDbEntity
  8
OBJECT1
100
AcDbLine
 10
11.98736441055498
 20
12.89673934730853
 30
0.0
 11
11.98735251278626
 21
12.85943564312646
 31
0.0
  0
LINE
  5
A63
330
1F
100
AcDbEntity
  8
OBJECT2
100
AcDbLine
 10
11.99464932411447
 20
12.71122003300972
 30
0.0
 11
11.99464908619189
 21
12.78768072978122
 31
0.0
  0
LINE
  5
A65
330
1F
100
AcDbEntity
  8
OBJECT1
100
AcDbLine
 10
11.99464908619189
 20
12.78768072978122
 30
0.0
 11
11.99464894621817
 21
12.80005258960202
 31
0.0
  0
LINE
  5
A66
330
1F
100
AcDbEntity
  8
OBJECT2
100
AcDbLine
 10
12.00652557891231
 20
12.80005300952328
 30
0.0
 11
12.00652557891231
 21
12.80005300952328
 31
0.0
  0
LINE
  5
A67
330
1F
100
AcDbEntity
  8
OBJECT2
100
AcDbLine
 10
12.00652557891231
 20
12.80005300952328
 30
0.0
 11
12.00652557891231
 21
12.80005300952328
 31
0.0
  0
LINE
  5
A68
330
1F
100
AcDbEntity
  8
OBJECT1
100
AcDbLine
 10
11.99464894621817
 20
12.80005258960202
 30
0.0
 11
12.00652557891231
 21
12.80005300952328
 31
0.0
  0
LINE
  5
A6C
330
1F
100
AcDbEntity
  8
OBJECT1
100
AcDbLine
 10
12.00652639697703
 20
12.80005261962965
 30
0.0
 11
12.00652681689827
 21
12.82012667500522
 31
0.0
  0
LINE
  5
A6E
330
1F
100
AcDbEntity
  8
OBJECT2
100
AcDbLine
 10
11.88640364751803
 20
12.71316923850481
 30
0.0
 11
11.88125887103191
 21
12.73197621642832
 31
0.0
  0
LINE
  5
A70
330
1F
100
AcDbEntity
  8
OBJECT1
100
AcDbLine
 10
11.88456967013514
 20
12.78768646870495
 30
0.0
 11
11.88006307528763
 21
12.80004643075704
 31
0.0
  0
LINE
  5
A71
330
1F
100
AcDbEntity
  8
OBJECT2
100
AcDbLine
 10
11.88125887103191
 20
12.73197621642832
 30
0.0
 11
11.88911733212881
 21
12.75162783166175
 31
0.0
  0
LINE
  5
A74
330
1F
100
AcDbEntity
  8
OBJECT2
100
AcDbLine
 10
12.08075895563934
 20
12.96281017659555
 30
0.0
 11
12.05106114507214
 21
12.95902850579805
 31
0.0
  0
LINE
  5
A75
330
1F
100
AcDbEntity
  8
OBJECT1
100
AcDbLine
 10
12.03790375256767
 20
12.962822214338
 30
0.0
 11
12.12361415871095
 21
12.96280989664803
 31
0.0
  0
LINE
  5
A76
330
1F
100
AcDbEntity
  8
OBJECT2
100
AcDbLine
 10
12.11044430854271
 20
12.93807233585144
 30
0.0
 11
12.11044402859526
 21
12.9590289257193
 31
0.0
  0
LINE
  5
A77
330
1F
100
AcDbEntity
  8
OBJECT2
100
AcDbLine
 10
12.12361415871095
 20
12.96280989664803
 30
0.0
 11
12.11044402859526
 21
12.9590289257193
 31
0.0
  0
LINE
  5
A78
330
1F
100
AcDbEntity
  8
OBJECT1
100
AcDbLine
 10
12.13617946225395
 20
12.95939719665494
 30
0.0
 11
12.12361415871095
 21
12.96280989664803
 31
0.0
  0
LINE
  5
A79
330
1F
100
AcDbEntity
  8
OBJECT2
100
AcDbLine
 10
12.11044402859526
 20
12.9590289257193
 30
0.0
 11
12.08075895563934
 21
12.96281017659555
 31
0.0
  0
LINE
  5
A7A
330
1F
100
AcDbEntity
  8
OBJECT2
100
AcDbLine
 10
12.11044430854271
 20
12.93807233585144
 30
0.0
 11
12.11044430854271
 21
12.9171157459836
 31
0.0
  0
LINE
  5
A7B
330
1F
100
AcDbEntity
  8
OBJECT2
100
AcDbLine
 10
12.05106072515089
 20
12.9381022902339
 30
0.0
 11
12.05106114507214
 21
12.95902850579805
 31
0.0
  0
LINE
  5
A7C
330
1F
100
AcDbEntity
  8
OBJECT2
100
AcDbLine
 10
12.03789171482515
 20
12.96281017659555
 30
0.0
 11
12.05106114507214
 21
12.95902850579805
 31
0.0
  0
LINE
  5
A7D
330
1F
100
AcDbEntity
  8
OBJECT1
100
AcDbLine
 10
12.0253261313347
 20
12.95940279560491
 30
0.0
 11
12.03789171482515
 21
12.96281017659555
 31
0.0
  0
LINE
  5
A7E
330
1F
100
AcDbEntity
  8
OBJECT2
100
AcDbLine
 10
12.05106072515089
 20
12.9381022902339
 30
0.0
 11
12.05106086512468
 21
12.91711560600984
 31
0.0
  0
LINE
  5
A7F
330
1F
100
AcDbEntity
  8
OBJECT1
100
AcDbLine
 10
12.15499083621048
 20
12.8000523096545
 30
0.0
 11
12.24148635511621
 21
12.80005860847325
 31
0.0
  0
ARC
  5
A80
330
1F
100
AcDbEntity
  8
OBJECT1
100
AcDbCircle
 10
11.84933806838125
 20
12.91333367921389
 30
0.0
 40
0.0039509394421907
100
AcDbArc
 50
89.81996500000091
 51
180.1761779999991
  0
LINE
  5
A81
330
1F
100
AcDbEntity
  8
OBJECT1
100
AcDbLine
 10
11.67999515597973
 20
12.76280372283083
 30
0.0
 11
11.80456070091776
 21
12.76282771584311
 31
0.0
  0
LINE
  5
A82
330
1F
100
AcDbEntity
  8
OBJECT1
100
AcDbLine
 10
11.84538714761693
 20
12.91332153054398
 30
0.0
 11
11.8453876554807
 21
12.89676361649413
 31
0.0
  0
ARC
  5
A83
330
1F
100
AcDbEntity
  8
OBJECT1
100
AcDbCircle
 10
11.84931747021756
 20
12.89673024259116
 30
0.0
 40
0.003929956448009
100
AcDbArc
 50
179.5134279999994
 51
270.4846039999839
  0
LINE
  5
A84
330
1F
100
AcDbEntity
  8
OBJECT1
100
AcDbLine
 10
11.81810593453256
 20
12.80004643075704
 30
0.0
 11
11.80456193453123
 21
12.76285778499729
 31
0.0
  0
LINE
  5
A85
330
1F
100
AcDbEntity
  8
OBJECT2
100
AcDbLine
 10
11.8169095788933
 20
12.73197621642832
 30
0.0
 11
11.80456193453123
 21
12.76285778499729
 31
0.0
  0
LINE
  5
A86
330
1F
100
AcDbEntity
  8
OBJECT2
100
AcDbLine
 10
11.80456221447868
 20
12.68683748160297
 30
0.0
 11
11.8169095788933
 21
12.73197621642832
 31
0.0
  0
LINE
  5
A87
330
1F
100
AcDbEntity
  8
OBJECT1
100
AcDbLine
 10
11.63664468590592
 20
12.80248117915897
 30
0.0
 11
11.67385763018155
 21
12.80248731569502
 31
0.0
  0
ARC
  5
A88
330
1F
100
AcDbEntity
  8
OBJECT1
100
AcDbCircle
 10
11.67383842876234
 20
12.79633019257211
 30
0.0
 40
0.0061569251701217
100
AcDbArc
 50
0.1791940000016422
 51
89.82168599998585
  0
LINE
  5
A89
330
1F
100
AcDbEntity
  8
OBJECT1
100
AcDbLine
 10
11.67999515597973
 20
12.76282173653339
 30
0.0
 11
11.67999515597973
 21
12.79634959194411
 31
0.0
  0
ARC
  5
A8A
330
1F
100
AcDbEntity
  8
OBJECT1
100
AcDbCircle
 10
11.63664310228367
 20
12.79634503903026
 30
0.0
 40
0.0061361401287153
100
AcDbArc
 50
89.98413800000921
 51
179.9012909999992
  0
ARC
  5
A8B
330
1F
100
AcDbEntity
  8
OBJECT1
100
AcDbCircle
 10
11.624371019979
 20
12.79488573117077
 30
0.0
 40
0.0061357442231647
100
AcDbArc
 50
269.9841309999925
 51
0.0176279999977917
  0
LINE
  5
A8C
330
1F
100
AcDbEntity
  8
OBJECT1
100
AcDbLine
 10
11.63050696215498
 20
12.79635553052737
 30
0.0
 11
11.63050696215498
 21
12.79488751274573
 31
0.0
  0
LINE
  5
A8D
330
1F
100
AcDbEntity
  8
OBJECT1
100
AcDbLine
 10
11.6243694363568
 20
12.78874998694758
 30
0.0
 11
11.5997219403988
 21
12.78874998694758
 31
0.0
  0
LINE
  5
A8E
330
1F
100
AcDbEntity
  8
OBJECT1
100
AcDbLine
 10
11.84935078396996
 20
12.89280033959265
 30
0.0
 11
11.97781925140255
 21
12.89279446069518
 31
0.0
  0
LINE
  5
A8F
330
1F
100
AcDbEntity
  8
OBJECT2
100
AcDbLine
 10
11.88125887103191
 20
12.73197621642832
 30
0.0
 11
11.8169095788933
 21
12.73197621642832
 31
0.0
  0
LINE
  5
A90
330
1F
100
AcDbEntity
  8
OBJECT1
100
AcDbLine
 10
11.81810593453256
 20
12.80004643075704
 30
0.0
 11
11.88006307528763
 21
12.80004643075704
 31
0.0
  0
LINE
  5
A91
330
1F
100
AcDbEntity
  8
OBJECT1
100
AcDbLine
 10
11.84996655051766
 20
12.91728457827486
 30
0.0
 11
11.97781941339879
 21
12.91729633606985
 31
0.0
  0
LINE
  5
A92
330
1F
100
AcDbEntity
  8
OBJECT2
100
AcDbLine
 10
12.31895650661069
 20
12.64326337335252
 30
0.0
 11
12.30660872227482
 21
12.59811246081093
 31
0.0
  0
LINE
  5
A93
330
1F
100
AcDbEntity
  8
OBJECT1
100
AcDbLine
 10
12.31911369713164
 20
12.56509853213802
 30
0.0
 11
12.30654783369367
 21
12.53226586947106
 31
0.0
  0
LINE
  5
A94
330
1F
100
AcDbEntity
  8
OBJECT2
100
AcDbLine
 10
12.31911369713164
 20
12.56509853213802
 30
0.0
 11
12.30660872227482
 21
12.59811246081093
 31
0.0
  0
LINE
  5
A95
330
1F
100
AcDbEntity
  8
OBJECT1
100
AcDbLine
 10
12.30654825361492
 20
12.79567281097176
 30
0.0
 11
12.31911341718412
 21
12.76285792497102
 31
0.0
  0
LINE
  5
A96
330
1F
100
AcDbEntity
  8
OBJECT2
100
AcDbLine
 10
12.31911341718412
 20
12.76285792497102
 30
0.0
 11
12.3065842268686
 21
12.72981950089189
 31
0.0
  0
LINE
  5
A97
330
1F
100
AcDbEntity
  8
OBJECT2
100
AcDbLine
 10
12.31894418892066
 20
12.68468076606654
 30
0.0
 11
12.3065842268686
 21
12.72981950089189
 31
0.0
  0
LINE
  5
A98
330
1F
100
AcDbEntity
  8
OBJECT1
100
AcDbLine
 10
12.3242370047049
 20
12.89278204312725
 30
0.0
 11
12.18368600319224
 21
12.89276972543725
 31
0.0
  0
LINE
  5
A99
330
1F
100
AcDbEntity
  8
OBJECT1
100
AcDbLine
 10
12.18368583997912
 20
12.9172728775645
 30
0.0
 11
12.32423712143917
 21
12.91727259761701
 31
0.0
  0
LINE
  5
A9A
330
1F
100
AcDbEntity
  8
OBJECT1
100
AcDbLine
 10
12.48221403567219
 20
12.86810514671822
 30
0.0
 11
12.7693808213274
 21
13.1552719323734
 31
0.0
  0
LINE
  5
A9B
330
1F
100
AcDbEntity
  8
OBJECT2
100
AcDbLine
 10
13.10250784774526
 20
12.83893895645269
 30
0.0
 11
12.76938068135361
 21
13.17208403948435
 31
0.0
  0
LINE
  5
A9C
330
1F
100
AcDbEntity
  8
OBJECT2
100
AcDbLine
 10
12.86995678963043
 20
13.28910608354272
 30
0.0
 11
13.21149343893447
 21
12.9475694342387
 31
0.0
  0
LINE
  5
A9D
330
1F
100
AcDbEntity
  8
OBJECT2
100
AcDbLine
 10
14.36343458611028
 20
12.53297203873949
 30
0.0
 11
14.36344666122955
 21
12.79488751274573
 31
0.0
  0
LINE
  5
A9E
330
1F
100
AcDbEntity
  8
OBJECT2
100
AcDbLine
 10
14.31395846740488
 20
12.76282173653339
 30
0.0
 11
14.31395846740488
 21
12.56508017684576
 31
0.0
  0
LINE
  5
A9F
330
1F
100
AcDbEntity
  8
OBJECT2
100
AcDbLine
 10
14.18942835599208
 20
12.56508631338177
 30
0.0
 11
14.18942793607083
 21
12.76287020162098
 31
0.0
  0
LINE
  5
AA0
330
1F
100
AcDbEntity
  8
OBJECT2
100
AcDbLine
 10
14.22055187699405
 20
12.595961997509
 30
0.0
 11
14.22055187699405
 21
12.73194605240616
 31
0.0
  0
LINE
  5
AA1
330
1F
100
AcDbEntity
  8
OBJECT2
100
AcDbLine
 10
14.25168747311522
 20
12.76281579795013
 30
0.0
 11
14.25168747311522
 21
12.56504395148787
 31
0.0
  0
LINE
  5
AA2
330
1F
100
AcDbEntity
  8
OBJECT2
100
AcDbLine
 10
14.28282287128364
 20
12.595961997509
 30
0.0
 11
14.28282287128364
 21
12.73194605240616
 31
0.0
  0
LINE
  5
AA3
330
1F
100
AcDbEntity
  8
OBJECT2
100
AcDbLine
 10
14.11177651857043
 20
12.52789780759575
 30
0.0
 11
14.11178869628668
 21
12.80006486625199
 31
0.0
  0
LINE
  5
AA4
330
1F
100
AcDbEntity
  8
OBJECT2
100
AcDbLine
 10
13.99955844359108
 20
12.5278857698533
 30
0.0
 11
13.99955802366983
 21
12.78912507786507
 31
0.0
  0
LINE
  5
AA5
330
1F
100
AcDbEntity
  8
OBJECT2
100
AcDbLine
 10
13.86495212723113
 20
12.78770504417367
 30
0.0
 11
13.86495226720486
 21
12.53207196478761
 31
0.0
  0
LINE
  5
AA6
330
1F
100
AcDbEntity
  8
OBJECT2
100
AcDbLine
 10
14.18924722995983
 20
12.64326361226001
 30
0.0
 11
14.17689916567656
 21
12.59812529735591
 31
0.0
  0
LINE
  5
AA7
330
1F
100
AcDbEntity
  8
OBJECT2
100
AcDbLine
 10
13.80301906196103
 20
12.64109485898109
 30
0.0
 11
13.79068359531513
 21
12.59596802192447
 31
0.0
  0
LINE
  5
AA8
330
1F
100
AcDbEntity
  8
OBJECT2
100
AcDbLine
 10
13.71398637886698
 20
12.64110087785232
 30
0.0
 11
13.72632198548655
 21
12.59596214302697
 31
0.0
  0
LINE
  5
AA9
330
1F
100
AcDbEntity
  8
OBJECT2
100
AcDbLine
 10
13.71398609891946
 20
12.762864042776
 30
0.0
 11
13.713985818972
 21
12.5650982111505
 31
0.0
  0
LINE
  5
AAA
330
1F
100
AcDbEntity
  8
OBJECT2
100
AcDbLine
 10
13.69725057444577
 20
12.73197645533581
 30
0.0
 11
13.69725043447204
 21
12.59595626412947
 31
0.0
  0
LINE
  5
AAB
330
1F
100
AcDbEntity
  8
OBJECT2
100
AcDbLine
 10
13.64703498885865
 20
12.56509837164426
 30
0.0
 11
13.64703470891113
 21
12.76285776447725
 31
0.0
  0
LINE
  5
AAC
330
1F
100
AcDbEntity
  8
OBJECT2
100
AcDbLine
 10
13.68051511354286
 20
12.76286407721984
 30
0.0
 11
13.68051498646218
 21
12.56509824559421
 31
0.0
  0
LINE
  5
AAD
330
1F
100
AcDbEntity
  8
OBJECT2
100
AcDbLine
 10
13.66377961294428
 20
12.73197647684363
 30
0.0
 11
13.66377957810988
 21
12.59595628563723
 31
0.0
  0
LINE
  5
AAE
330
1F
100
AcDbEntity
  8
OBJECT2
100
AcDbLine
 10
13.6118147939419
 20
12.731269888367
 30
0.0
 11
13.61181535383688
 21
12.59666945090455
 31
0.0
  0
LINE
  5
AAF
330
1F
100
AcDbEntity
  8
OBJECT2
100
AcDbLine
 10
13.51283935548053
 20
12.59667532980205
 30
0.0
 11
13.51283935548053
 21
12.73128164616196
 31
0.0
  0
ARC
  5
AB5
330
1F
100
AcDbEntity
  8
OBJECT1
100
AcDbCircle
 10
14.39422910959969
 20
12.49180617549386
 30
0.0
 40
0.2969436135009449
100
AcDbArc
 50
359.9992680000019
 51
89.99948900000589
  0
ARC
  5
AB6
330
1F
100
AcDbEntity
  8
OBJECT1
100
AcDbCircle
 10
14.32006531052285
 20
12.53146759764721
 30
0.0
 40
0.0060949659514531
100
AcDbArc
 50
179.826080000003
 51
270.1756900000165
  0
LINE
  5
AB7
330
1F
100
AcDbEntity
  8
OBJECT1
100
AcDbLine
 10
14.3695843849805
 20
12.5390976873711
 30
0.0
 11
14.39420753274713
 21
12.5391097624904
 31
0.0
  0
ARC
  5
AB8
330
1F
100
AcDbEntity
  8
OBJECT1
100
AcDbCircle
 10
14.36957052828627
 20
12.53296174519517
 30
0.0
 40
0.00613594217594
100
AcDbArc
 50
89.87131500001501
 51
179.9030459999984
  0
LINE
  5
AB9
330
1F
100
AcDbEntity
  8
OBJECT1
100
AcDbLine
 10
14.36343458611028
 20
12.53150421891064
 30
0.0
 11
14.36343458611028
 21
12.53297203873949
 31
0.0
  0
ARC
  5
ABA
330
1F
100
AcDbEntity
  8
OBJECT1
100
AcDbCircle
 10
14.35731903307018
 20
12.53148818473586
 30
0.0
 40
0.0061155530400842
100
AcDbArc
 50
269.9044799999952
 51
0.1503400000033362
  0
LINE
  5
ABB
330
1F
100
AcDbEntity
  8
OBJECT1
100
AcDbLine
 10
14.35730893747868
 20
12.52537243374299
 30
0.0
 11
14.32008411603648
 21
12.52537243374299
 31
0.0
  0
LINE
  5
ABC
330
1F
100
AcDbEntity
  8
OBJECT1
100
AcDbLine
 10
14.31395846740488
 20
12.56508017684576
 30
0.0
 11
14.31395846740488
 21
12.53150421891064
 31
0.0
  0
LINE
  5
ABD
330
1F
100
AcDbEntity
  8
OBJECT1
100
AcDbLine
 10
14.18942834397961
 20
12.56508628203079
 30
0.0
 11
14.31395846740488
 21
12.56508017684576
 31
0.0
  0
LINE
  5
ABE
330
1F
100
AcDbEntity
  8
OBJECT1
100
AcDbLine
 10
14.11177651857043
 20
12.52789780759575
 30
0.0
 11
13.99955844359108
 21
12.5278857698533
 31
0.0
  0
LINE
  5
ABF
330
1F
100
AcDbEntity
  8
OBJECT1
100
AcDbLine
 10
14.11239310293825
 20
12.5322712874073
 30
0.0
 11
14.17685059478538
 21
12.53225994953356
 31
0.0
  0
LINE
  5
AC0
330
1F
100
AcDbEntity
  8
OBJECT2
100
AcDbLine
 10
14.17689916567656
 20
12.59812529735591
 30
0.0
 11
14.11178855631295
 21
12.59811899853716
 31
0.0
  0
LINE
  5
AC1
330
1F
100
AcDbEntity
  8
OBJECT1
100
AcDbLine
 10
13.99908743192301
 20
12.53204816925017
 30
0.0
 11
13.86495226720486
 21
12.53207196478761
 31
0.0
  0
LINE
  5
AC2
330
1F
100
AcDbEntity
  8
OBJECT1
100
AcDbLine
 10
14.18942835599208
 20
12.56508631338177
 30
0.0
 11
14.17685059478538
 21
12.53225994953356
 31
0.0
  0
LINE
  5
AC3
330
1F
100
AcDbEntity
  8
OBJECT2
100
AcDbLine
 10
14.18942835599208
 20
12.56508631338177
 30
0.0
 11
14.17689916567656
 21
12.59812529735591
 31
0.0
  0
ARC
  5
AC4
330
1F
100
AcDbEntity
  8
OBJECT1
100
AcDbCircle
 10
14.39420634503052
 20
12.49179509013845
 30
0.0
 40
0.0473146723519428
100
AcDbArc
 50
0.0015999999983918
 51
89.99839800000533
  0
LINE
  5
AC5
330
1F
100
AcDbEntity
  8
OBJECT2
100
AcDbLine
 10
13.79068359531513
 20
12.59596802192447
 30
0.0
 11
13.72632198548655
 21
12.59596214302697
 31
0.0
  0
LINE
  5
AC6
330
1F
100
AcDbEntity
  8
OBJECT1
100
AcDbLine
 10
13.72751820115208
 20
12.52788590982703
 30
0.0
 11
13.7894873796496
 21
12.52789794756951
 31
0.0
  0
LINE
  5
AC7
330
1F
100
AcDbEntity
  8
OBJECT1
100
AcDbLine
 10
13.7894873796496
 20
12.52789794756951
 30
0.0
 11
13.72751820115208
 21
12.52788590982703
 31
0.0
  0
LINE
  5
AC8
330
1F
100
AcDbEntity
  8
OBJECT1
100
AcDbLine
 10
13.79398193675472
 20
12.54025147082909
 30
0.0
 11
13.7894873796496
 21
12.52789794756951
 31
0.0
  0
LINE
  5
AC9
330
1F
100
AcDbEntity
  8
OBJECT2
100
AcDbLine
 10
13.79068359531513
 20
12.59596802192447
 30
0.0
 11
13.80301906196103
 21
12.56509247222676
 31
0.0
  0
ARC
  5
ACA
330
1F
100
AcDbEntity
  8
OBJECT2
100
AcDbCircle
 10
13.59993494185155
 20
12.59667281027455
 30
0.0
 40
0.0118801358095634
100
AcDbArc
 50
270.0173800000094
 51
359.983902000001
  0
LINE
  5
ACB
330
1F
100
AcDbEntity
  8
OBJECT1
100
AcDbLine
 10
13.6470345689374
 20
12.54717515290766
 30
0.0
 11
13.64703498885865
 21
12.56509837164426
 31
0.0
  0
ARC
  5
ACC
330
1F
100
AcDbEntity
  8
OBJECT1
100
AcDbCircle
 10
13.64228819905653
 20
12.53474506400696
 30
0.0
 40
0.0124296527137932
100
AcDbArc
 50
90.11753100000746
 51
134.8955730000032
  0
LINE
  5
ACD
330
1F
100
AcDbEntity
  8
OBJECT1
100
AcDbLine
 10
13.6470345689374
 20
12.54717515290766
 30
0.0
 11
13.64226272383409
 21
12.54717473298641
 31
0.0
  0
LINE
  5
ACE
330
1F
100
AcDbEntity
  8
OBJECT1
100
AcDbLine
 10
13.64703496612215
 20
12.5650984316701
 30
0.0
 11
13.713985818972
 21
12.5650982111505
 31
0.0
  0
LINE
  5
ACF
330
1F
100
AcDbEntity
  8
OBJECT1
100
AcDbLine
 10
13.72751820115208
 20
12.52788590982703
 30
0.0
 11
13.71398623889325
 21
12.56510450996924
 31
0.0
  0
LINE
  5
AD0
330
1F
100
AcDbEntity
  8
OBJECT2
100
AcDbLine
 10
13.72632198548655
 20
12.59596214302697
 30
0.0
 11
13.71398623889325
 21
12.56510450996924
 31
0.0
  0
LINE
  5
AD1
330
1F
100
AcDbEntity
  8
OBJECT2
100
AcDbLine
 10
13.59993858116901
 20
12.58479267823671
 30
0.0
 11
13.52471514833217
 21
12.58478665936546
 31
0.0
  0
LINE
  5
AD2
330
1F
100
AcDbEntity
  8
OBJECT2
100
AcDbLine
 10
13.60507407807431
 20
12.52774651649226
 30
0.0
 11
13.60507379812678
 21
12.58596467844352
 31
0.0
  0
ARC
  5
AD5
330
1F
100
AcDbEntity
  8
OBJECT2
100
AcDbCircle
 10
13.5247186476759
 20
12.59666553163957
 30
0.0
 40
0.0118793439984622
100
AcDbArc
 50
179.9530030000025
 51
269.9826199999904
  0
LINE
  5
AD6
330
1F
100
AcDbEntity
  8
OBJECT1
100
AcDbLine
 10
13.60033792627716
 20
12.51551365060501
 30
0.0
 11
13.57502479342143
 21
12.515508051655
 31
0.0
  0
ARC
  5
AD7
330
1F
100
AcDbEntity
  8
OBJECT1
100
AcDbCircle
 10
13.60036396139458
 20
12.52790608656702
 30
0.0
 40
0.012392437592037
100
AcDbArc
 50
269.8796540000011
 51
314.8079829999976
  0
ARC
  5
AD8
330
1F
100
AcDbEntity
  8
OBJECT1
100
AcDbCircle
 10
13.57503459158397
 20
12.50313325238547
 30
0.0
 40
0.0123748197950354
100
AcDbArc
 50
90.04512000000705
 51
224.961548000005
  0
LINE
  5
AD9
330
1F
100
AcDbEntity
  8
OBJECT1
100
AcDbLine
 10
13.6090973435639
 20
12.5191139154228
 30
0.0
 11
13.63351520431601
 21
12.54354997276241
 31
0.0
  0
LINE
  5
ADA
330
1F
100
AcDbEntity
  8
OBJECT1
100
AcDbLine
 10
13.79398193675472
 20
12.54025147082909
 30
0.0
 11
13.86495170730988
 21
12.54025175077658
 31
0.0
  0
ARC
  5
ADB
330
1F
100
AcDbEntity
  8
OBJECT1
100
AcDbCircle
 10
14.19457013863858
 20
12.91336487937704
 30
0.0
 40
0.0039204547147947
100
AcDbArc
 50
359.5551299999997
 51
90.45261399998732
  0
ARC
  5
ADC
330
1F
100
AcDbEntity
  8
OBJECT1
100
AcDbCircle
 10
14.32011499666944
 20
12.79633058847766
 30
0.0
 40
0.0061565292645711
100
AcDbArc
 50
90.17569000001653
 51
179.824310000003
  0
ARC
  5
ADD
330
1F
100
AcDbEntity
  8
OBJECT1
100
AcDbCircle
 10
14.3573107190537
 20
12.7963454349358
 30
0.0
 40
0.0061357442231647
100
AcDbArc
 50
0.0951929999983776
 51
90.01762399999847
  0
LINE
  5
ADE
330
1F
100
AcDbEntity
  8
OBJECT1
100
AcDbLine
 10
14.36344666122955
 20
12.79635553052737
 30
0.0
 11
14.36344666122955
 21
12.79488751274573
 31
0.0
  0
LINE
  5
ADF
330
1F
100
AcDbEntity
  8
OBJECT1
100
AcDbLine
 10
14.3695843849805
 20
12.78874998694758
 30
0.0
 11
14.39423168298574
 21
12.78874998694758
 31
0.0
  0
ARC
  5
AE0
330
1F
100
AcDbEntity
  8
OBJECT1
100
AcDbCircle
 10
14.36958260340554
 20
12.79488573117077
 30
0.0
 40
0.0061357442231647
100
AcDbArc
 50
179.9823760000014
 51
270.0158689999813
  0
LINE
  5
AE1
330
1F
100
AcDbEntity
  8
OBJECT1
100
AcDbLine
 10
14.35730893747868
 20
12.80248117915897
 30
0.0
 11
14.32009619115575
 21
12.80248731569502
 31
0.0
  0
LINE
  5
AE2
330
1F
100
AcDbEntity
  8
OBJECT1
100
AcDbLine
 10
14.19849047517853
 20
12.91333443952302
 30
0.0
 11
14.19848933099586
 21
12.89675714015812
 31
0.0
  0
ARC
  5
AE3
330
1F
100
AcDbEntity
  8
OBJECT1
100
AcDbCircle
 10
14.19454874589431
 20
12.89673525067429
 30
0.0
 40
0.0039406458978752
100
AcDbArc
 50
269.8602600000039
 51
0.3182679999991578
  0
LINE
  5
AE4
330
1F
100
AcDbEntity
  8
OBJECT1
100
AcDbLine
 10
14.31395846740488
 20
12.76282173653339
 30
0.0
 11
14.31395846740488
 21
12.79634959194411
 31
0.0
  0
LINE
  5
AE5
330
1F
100
AcDbEntity
  8
OBJECT1
100
AcDbLine
 10
14.18942793616081
 20
12.76282784160453
 30
0.0
 11
14.31395846740488
 21
12.76282173653339
 31
0.0
  0
ARC
  5
AE6
330
1F
100
AcDbEntity
  8
OBJECT1
100
AcDbCircle
 10
13.84812457582193
 20
12.91334872531122
 30
0.0
 40
0.0039600452698545
100
AcDbArc
 50
359.9652249999995
 51
90.04248799999928
  0
LINE
  5
AE7
330
1F
100
AcDbEntity
  8
OBJECT2
100
AcDbLine
 10
13.90824222874327
 20
12.91334646178217
 30
0.0
 11
13.92136294812535
 21
12.91712813257967
 31
0.0
  0
LINE
  5
AE8
330
1F
100
AcDbEntity
  8
OBJECT2
100
AcDbLine
 10
13.92136294812535
 20
12.91712813257967
 30
0.0
 11
13.95106103864
 21
12.91334618183465
 31
0.0
  0
LINE
  5
AE9
330
1F
100
AcDbEntity
  8
OBJECT2
100
AcDbLine
 10
13.95106103864
 20
12.91334618183465
 30
0.0
 11
13.98074639154337
 21
12.9171282725534
 31
0.0
  0
ARC
  5
AEA
330
1F
100
AcDbEntity
  8
OBJECT1
100
AcDbCircle
 10
14.05397784486984
 20
12.91334430323584
 30
0.0
 40
0.0039412397562011
100
AcDbArc
 50
89.85251200001178
 51
180.1436159999986
  0
LINE
  5
AEB
330
1F
100
AcDbEntity
  8
OBJECT2
100
AcDbLine
 10
13.98074639154337
 20
12.9171282725534
 30
0.0
 11
13.99388012848413
 21
12.91334618183465
 31
0.0
  0
LINE
  5
AEC
330
1F
100
AcDbEntity
  8
OBJECT1
100
AcDbLine
 10
13.89562849428288
 20
12.91678351720772
 30
0.0
 11
13.89562821433536
 21
12.95941532217474
 31
0.0
  0
LINE
  5
AED
330
1F
100
AcDbEntity
  8
OBJECT1
100
AcDbLine
 10
14.00648154525461
 20
12.95940972322473
 30
0.0
 11
14.00648098535957
 21
12.91677791825775
 31
0.0
  0
LINE
  5
AEE
330
1F
100
AcDbEntity
  8
OBJECT1
100
AcDbLine
 10
13.99388012848413
 20
12.91334618183465
 30
0.0
 11
14.05003759689132
 21
12.91333442403969
 31
0.0
  0
LINE
  5
AEF
330
1F
100
AcDbEntity
  8
OBJECT1
100
AcDbLine
 10
14.02529289743348
 20
12.80006500622572
 30
0.0
 11
14.11178869628668
 21
12.80006486625199
 31
0.0
  0
LINE
  5
AF0
330
1F
100
AcDbEntity
  8
OBJECT1
100
AcDbLine
 10
14.0500375033921
 20
12.89675761283979
 30
0.0
 11
13.980746310981
 21
12.89675550599101
 31
0.0
  0
LINE
  5
AF1
330
1F
100
AcDbEntity
  8
OBJECT2
100
AcDbLine
 10
14.17689888572904
 20
12.72983191751562
 30
0.0
 11
14.11178869628668
 21
12.72983779641311
 31
0.0
  0
LINE
  5
AF2
330
1F
100
AcDbEntity
  8
OBJECT1
100
AcDbLine
 10
14.11239310293819
 20
12.79568536756922
 30
0.0
 11
14.1768508747329
 21
12.79568494764797
 31
0.0
  0
LINE
  5
AF3
330
1F
100
AcDbEntity
  8
OBJECT2
100
AcDbLine
 10
14.05003759689132
 20
12.91333442403969
 30
0.0
 11
14.05003703699628
 21
12.89675761280209
 31
0.0
  0
ARC
  5
AF4
330
1F
100
AcDbEntity
  8
OBJECT1
100
AcDbCircle
 10
14.05401734070659
 20
12.89676268552923
 30
0.0
 40
0.0039798405473844
100
AcDbArc
 50
180.0730289999989
 51
269.5811160000003
  0
LINE
  5
AF5
330
1F
100
AcDbEntity
  8
OBJECT1
100
AcDbLine
 10
13.90824222874327
 20
12.91334646178217
 30
0.0
 11
13.85208462036234
 21
12.91334632180841
 31
0.0
  0
LINE
  5
AF6
330
1F
100
AcDbEntity
  8
OBJECT1
100
AcDbLine
 10
13.88077923906492
 20
12.88027164452811
 30
0.0
 11
13.89735591032879
 21
12.88419244923285
 31
0.0
  0
LINE
  5
AF7
330
1F
100
AcDbEntity
  8
OBJECT1
100
AcDbLine
 10
13.92135838339429
 20
12.89675370025817
 30
0.0
 11
13.87163349422884
 21
12.89675218833699
 31
0.0
  0
LINE
  5
AF8
330
1F
100
AcDbEntity
  8
OBJECT1
100
AcDbLine
 10
13.87163349422884
 20
12.85945460848877
 30
0.0
 11
13.90156030185058
 21
12.85946062736003
 31
0.0
  0
LINE
  5
AF9
330
1F
100
AcDbEntity
  8
OBJECT1
100
AcDbLine
 10
13.88077965898617
 20
12.86937398823986
 30
0.0
 11
13.90156058179803
 21
12.86936153057616
 31
0.0
  0
ARC
  5
AFA
330
1F
100
AcDbEntity
  8
OBJECT2
100
AcDbCircle
 10
13.95106159853498
 20
13.0135928618914
 30
0.0
 40
0.2260630591552188
100
AcDbArc
 50
250.8299260000005
 51
289.1696010000059
  0
LINE
  5
AFB
330
1F
100
AcDbEntity
  8
OBJECT1
100
AcDbLine
 10
13.92136294812535
 20
12.88419258920661
 30
0.0
 11
13.89735591032879
 21
12.88419244923285
 31
0.0
  0
LINE
  5
AFC
330
1F
100
AcDbEntity
  8
OBJECT2
100
AcDbLine
 10
13.9139325815926
 20
12.88029599996056
 30
0.0
 11
13.95106103864
 21
12.88419216928536
 31
0.0
  0
LINE
  5
AFD
330
1F
100
AcDbEntity
  8
OBJECT2
100
AcDbLine
 10
13.9139325815926
 20
12.88029599996056
 30
0.0
 11
13.89735591032879
 21
12.88419244923285
 31
0.0
  0
LINE
  5
AFE
330
1F
100
AcDbEntity
  8
OBJECT1
100
AcDbLine
 10
13.90824222874327
 20
12.91334646178217
 30
0.0
 11
13.89562849428288
 21
12.91678351720772
 31
0.0
  0
LINE
  5
AFF
330
1F
100
AcDbEntity
  8
OBJECT1
100
AcDbLine
 10
13.980746310981
 20
12.89675550599101
 30
0.0
 11
13.9807466714909
 21
12.88418013154288
 31
0.0
  0
LINE
  5
B00
330
1F
100
AcDbEntity
  8
OBJECT2
100
AcDbLine
 10
13.9807466714909
 20
12.88418013154288
 30
0.0
 11
13.92135091038289
 21
12.88419230925912
 31
0.0
  0
LINE
  5
B01
330
1F
100
AcDbEntity
  8
OBJECT1
100
AcDbLine
 10
13.92135838339429
 20
12.89675370025817
 30
0.0
 11
13.92135091038289
 21
12.88419230925912
 31
0.0
  0
LINE
  5
B02
330
1F
100
AcDbEntity
  8
OBJECT2
100
AcDbLine
 10
13.92135838339429
 20
12.89675370025817
 30
0.0
 11
13.980746310981
 21
12.89675550599101
 31
0.0
  0
LINE
  5
B03
330
1F
100
AcDbEntity
  8
OBJECT1
100
AcDbLine
 10
13.90156058179803
 20
12.86936153057616
 30
0.0
 11
13.90156030185058
 21
12.85946062736003
 31
0.0
  0
LINE
  5
B04
330
1F
100
AcDbEntity
  8
OBJECT2
100
AcDbLine
 10
13.9139325815926
 20
12.88029599996056
 30
0.0
 11
13.9139325815926
 21
12.86936181052365
 31
0.0
  0
LINE
  5
B05
330
1F
100
AcDbEntity
  8
OBJECT2
100
AcDbLine
 10
13.98817717799737
 20
12.88029599996056
 30
0.0
 11
14.00475342933992
 21
12.88417999156915
 31
0.0
  0
LINE
  5
B06
330
1F
100
AcDbEntity
  8
OBJECT1
100
AcDbLine
 10
14.02133038055132
 20
12.88028410219184
 30
0.0
 11
14.00475342933992
 21
12.88417999156915
 31
0.0
  0
LINE
  5
B07
330
1F
100
AcDbEntity
  8
OBJECT1
100
AcDbLine
 10
13.99388012848413
 20
12.91334618183465
 30
0.0
 11
14.00648098535957
 21
12.91677791825775
 31
0.0
  0
LINE
  5
B08
330
1F
100
AcDbEntity
  8
OBJECT1
100
AcDbLine
 10
14.0005493177656
 20
12.85946664623125
 30
0.0
 11
14.02529331735473
 21
12.85945432854128
 31
0.0
  0
LINE
  5
B09
330
1F
100
AcDbEntity
  8
OBJECT1
100
AcDbLine
 10
14.00053700007569
 20
12.8693613906024
 30
0.0
 11
14.0005493177656
 21
12.85946664623125
 31
0.0
  0
LINE
  5
B0A
330
1F
100
AcDbEntity
  8
OBJECT1
100
AcDbLine
 10
14.02133038055132
 20
12.86936782939487
 30
0.0
 11
14.00053700007569
 21
12.8693613906024
 31
0.0
  0
LINE
  5
B0B
330
1F
100
AcDbEntity
  8
OBJECT1
100
AcDbLine
 10
14.02133038055132
 20
12.88028410219184
 30
0.0
 11
14.02133038055132
 21
12.86936782939487
 31
0.0
  0
LINE
  5
B0C
330
1F
100
AcDbEntity
  8
OBJECT2
100
AcDbLine
 10
13.98817717799737
 20
12.88029599996056
 30
0.0
 11
13.98817717799737
 21
12.86936153057613
 31
0.0
  0
LINE
  5
B0D
330
1F
100
AcDbEntity
  8
OBJECT1
100
AcDbLine
 10
14.02529331735473
 20
12.85945432854128
 30
0.0
 11
14.02529289743348
 21
12.80006500622572
 31
0.0
  0
LINE
  5
B0E
330
1F
100
AcDbEntity
  8
OBJECT1
100
AcDbLine
 10
13.9807466714909
 20
12.88418013154288
 30
0.0
 11
14.00475342933992
 21
12.88417999156915
 31
0.0
  0
LINE
  5
B0F
330
1F
100
AcDbEntity
  8
OBJECT2
100
AcDbLine
 10
13.99388012848413
 20
12.91334618183465
 30
0.0
 11
13.90824222874327
 21
12.91334646178217
 31
0.0
  0
LINE
  5
B10
330
1F
100
AcDbEntity
  8
OBJECT2
100
AcDbLine
 10
13.98817717799737
 20
12.88029599996056
 30
0.0
 11
13.95106103864
 21
12.88419216928536
 31
0.0
  0
LINE
  5
B11
330
1F
100
AcDbEntity
  8
OBJECT2
100
AcDbLine
 10
14.0005493177656
 20
12.85946664623125
 30
0.0
 11
13.90156030185058
 21
12.85946062736003
 31
0.0
  0
LINE
  5
B12
330
1F
100
AcDbEntity
  8
OBJECT2
100
AcDbLine
 10
13.90156058179803
 20
12.86936153057616
 30
0.0
 11
14.00053700007569
 21
12.8693613906024
 31
0.0
  0
LINE
  5
B13
330
1F
100
AcDbEntity
  8
OBJECT1
100
AcDbLine
 10
13.87682889989894
 20
12.82013920157504
 30
0.0
 11
13.85097280886802
 21
12.83803890472168
 31
0.0
  0
ARC
  5
B14
330
1F
100
AcDbEntity
  8
OBJECT2
100
AcDbCircle
 10
13.86161851240663
 20
12.83965210218776
 30
0.0
 40
0.0039523251116178
100
AcDbArc
 50
179.827759000002
 51
269.8083949999804
  0
LINE
  5
B15
330
1F
100
AcDbEntity
  8
OBJECT2
100
AcDbLine
 10
13.87682889989894
 20
12.82015739816251
 30
0.0
 11
13.87682847997768
 21
12.8458382420588
 31
0.0
  0
ARC
  5
B16
330
1F
100
AcDbEntity
  8
OBJECT2
100
AcDbCircle
 10
13.86769421298907
 20
12.83964622329026
 30
0.0
 40
0.0039392602284481
100
AcDbArc
 50
269.4796449999864
 51
0.3456419999985644
  0
LINE
  5
B17
330
1F
100
AcDbEntity
  8
OBJECT2
100
AcDbLine
 10
13.86765851968284
 20
12.83570722199805
 30
0.0
 11
13.86160521490036
 21
12.83570050325805
 31
0.0
  0
ARC
  5
B18
330
1F
100
AcDbEntity
  8
OBJECT1
100
AcDbCircle
 10
13.84812511369446
 20
12.89676614477718
 30
0.0
 40
0.0039592534587533
100
AcDbArc
 50
269.9459080000016
 51
359.7894290000001
  0
LINE
  5
B19
330
1F
100
AcDbEntity
  8
OBJECT2
100
AcDbLine
 10
13.85208462036234
 20
12.91334632180841
 30
0.0
 11
13.85208434041489
 21
12.89675159393087
 31
0.0
  0
LINE
  5
B1A
330
1F
100
AcDbEntity
  8
OBJECT1
100
AcDbLine
 10
13.85766635358191
 20
12.896751763656
 30
0.0
 11
13.85208434041489
 21
12.89675159393087
 31
0.0
  0
LINE
  5
B1B
330
1F
100
AcDbEntity
  8
OBJECT2
100
AcDbLine
 10
13.8716329343338
 20
12.83966987885398
 30
0.0
 11
13.87163349422884
 21
12.85945460848877
 31
0.0
  0
LINE
  5
B1C
330
1F
100
AcDbEntity
  8
OBJECT1
100
AcDbLine
 10
13.84926946830707
 20
12.84128867527006
 30
0.0
 11
13.84928122610206
 21
12.85550356945407
 31
0.0
  0
ARC
  5
B1D
330
1F
100
AcDbEntity
  8
OBJECT1
100
AcDbCircle
 10
13.85337601817778
 20
12.84137013999242
 30
0.0
 40
0.0041073221346769
100
AcDbArc
 50
181.1378170000003
 51
234.1926269999939
  0
ARC
  5
B1E
330
1F
100
AcDbEntity
  8
OBJECT1
100
AcDbCircle
 10
13.85323156526799
 20
12.85551000824655
 30
0.0
 40
0.0039505435366401
100
AcDbArc
 50
89.81026499999705
 51
180.0929260000021
  0
LINE
  5
B1F
330
1F
100
AcDbEntity
  8
OBJECT1
100
AcDbLine
 10
13.85324464747083
 20
12.85946053012232
 30
0.0
 11
13.85765459928063
 21
12.85945912359747
 31
0.0
  0
LINE
  5
B20
330
1F
100
AcDbEntity
  8
OBJECT2
100
AcDbLine
 10
13.85765459928063
 20
12.85945912359747
 30
0.0
 11
13.85766620515376
 21
12.83966398354116
 31
0.0
  0
LINE
  5
B21
330
1F
100
AcDbEntity
  8
OBJECT1
100
AcDbLine
 10
13.87163349422884
 20
12.89675218833699
 30
0.0
 11
13.87163349422884
 21
12.85945460848877
 31
0.0
  0
LINE
  5
B22
330
1F
100
AcDbEntity
  8
OBJECT1
100
AcDbLine
 10
13.88077923906492
 20
12.88027164452811
 30
0.0
 11
13.88077965898617
 21
12.86937398823986
 31
0.0
  0
LINE
  5
B23
330
1F
100
AcDbEntity
  8
OBJECT1
100
AcDbLine
 10
13.85766649355564
 20
12.89675187387835
 30
0.0
 11
13.85765459578691
 21
12.85944816969629
 31
0.0
  0
LINE
  5
B24
330
1F
100
AcDbEntity
  8
OBJECT1
100
AcDbLine
 10
13.86495170730988
 20
12.80006486625199
 30
0.0
 11
13.87682847997768
 21
12.80006514619948
 31
0.0
  0
LINE
  5
B25
330
1F
100
AcDbEntity
  8
OBJECT1
100
AcDbLine
 10
13.86493966956737
 20
12.78769902530241
 30
0.0
 11
13.86495170730988
 21
12.80006486625199
 31
0.0
  0
LINE
  5
B26
330
1F
100
AcDbEntity
  8
OBJECT2
100
AcDbLine
 10
13.87682847997768
 20
12.80006514619948
 30
0.0
 11
13.87682847997768
 21
12.80006514619948
 31
0.0
  0
LINE
  5
B27
330
1F
100
AcDbEntity
  8
OBJECT2
100
AcDbLine
 10
13.87682847997768
 20
12.80006514619948
 30
0.0
 11
13.87682847997768
 21
12.80006514619948
 31
0.0
  0
LINE
  5
B28
330
1F
100
AcDbEntity
  8
OBJECT1
100
AcDbLine
 10
13.87682847997768
 20
12.80006514619948
 30
0.0
 11
13.87682889989894
 21
12.82013920157504
 31
0.0
  0
LINE
  5
B29
330
1F
100
AcDbEntity
  8
OBJECT2
100
AcDbLine
 10
13.92136280815155
 20
12.9381148168037
 30
0.0
 11
13.9213632280728
 21
12.95904103236785
 31
0.0
  0
LINE
  5
B2A
330
1F
100
AcDbEntity
  8
OBJECT2
100
AcDbLine
 10
13.98074639154337
 20
12.93808486242127
 30
0.0
 11
13.98074611159592
 21
12.9590414522891
 31
0.0
  0
LINE
  5
B2B
330
1F
100
AcDbEntity
  8
OBJECT2
100
AcDbLine
 10
13.90819379782581
 20
12.96282270316535
 30
0.0
 11
13.9213632280728
 21
12.95904103236785
 31
0.0
  0
LINE
  5
B2C
330
1F
100
AcDbEntity
  8
OBJECT2
100
AcDbLine
 10
13.95106103864
 20
12.96282270316535
 30
0.0
 11
13.9213632280728
 21
12.95904103236785
 31
0.0
  0
LINE
  5
B2D
330
1F
100
AcDbEntity
  8
OBJECT1
100
AcDbLine
 10
13.89562821433536
 20
12.95941532217474
 30
0.0
 11
13.90819379782581
 21
12.96282270316535
 31
0.0
  0
LINE
  5
B2E
330
1F
100
AcDbEntity
  8
OBJECT2
100
AcDbLine
 10
13.98074611159592
 20
12.9590414522891
 30
0.0
 11
13.95106103864
 21
12.96282270316535
 31
0.0
  0
LINE
  5
B2F
330
1F
100
AcDbEntity
  8
OBJECT1
100
AcDbLine
 10
14.00648154525461
 20
12.95940972322473
 30
0.0
 11
13.99391624171161
 21
12.96282242321786
 31
0.0
  0
LINE
  5
B30
330
1F
100
AcDbEntity
  8
OBJECT2
100
AcDbLine
 10
13.99391624171161
 20
12.96282242321786
 30
0.0
 11
13.98074611159592
 21
12.9590414522891
 31
0.0
  0
LINE
  5
B31
330
1F
100
AcDbEntity
  8
OBJECT1
100
AcDbLine
 10
13.90820583556833
 20
12.96283474090783
 30
0.0
 11
13.99391624171161
 21
12.96282242321786
 31
0.0
  0
LINE
  5
B32
330
1F
100
AcDbEntity
  8
OBJECT2
100
AcDbLine
 10
13.92136280815155
 20
12.9381148168037
 30
0.0
 11
13.92136294812535
 21
12.91712813257967
 31
0.0
  0
LINE
  5
B33
330
1F
100
AcDbEntity
  8
OBJECT2
100
AcDbLine
 10
13.98074639154337
 20
12.93808486242127
 30
0.0
 11
13.98074639154337
 21
12.9171282725534
 31
0.0
  0
LINE
  5
B34
330
1F
100
AcDbEntity
  8
OBJECT1
100
AcDbLine
 10
14.19453908770556
 20
12.89279456969705
 30
0.0
 11
14.0539880861929
 21
12.89278225200708
 31
0.0
  0
LINE
  5
B35
330
1F
100
AcDbEntity
  8
OBJECT1
100
AcDbLine
 10
14.18942793607083
 20
12.76287020162098
 30
0.0
 11
14.1768508747329
 21
12.79568494764797
 31
0.0
  0
LINE
  5
B36
330
1F
100
AcDbEntity
  8
OBJECT2
100
AcDbLine
 10
14.18942793607083
 20
12.76287020162098
 30
0.0
 11
14.17689888572904
 21
12.72983191751562
 31
0.0
  0
LINE
  5
B37
330
1F
100
AcDbEntity
  8
OBJECT2
100
AcDbLine
 10
14.18924667006491
 20
12.6846992015615
 30
0.0
 11
14.17689888572904
 21
12.72983191751562
 31
0.0
  0
LINE
  5
B38
330
1F
100
AcDbEntity
  8
OBJECT1
100
AcDbLine
 10
14.05398792297984
 20
12.91728540413433
 30
0.0
 11
14.1945392044399
 21
12.91728512418681
 31
0.0
  0
ARC
  5
B39
330
1F
100
AcDbEntity
  8
OBJECT1
100
AcDbCircle
 10
13.71964015138191
 20
12.91334620578372
 30
0.0
 40
0.0039509394421907
100
AcDbArc
 50
89.81996500000091
 51
180.1761779999991
  0
LINE
  5
B3A
330
1F
100
AcDbEntity
  8
OBJECT1
100
AcDbLine
 10
13.72751806117841
 20
12.80005912732822
 30
0.0
 11
13.78948709970214
 21
12.80007074514946
 31
0.0
  0
LINE
  5
B3B
330
1F
100
AcDbEntity
  8
OBJECT2
100
AcDbLine
 10
13.79068317539388
 20
12.73199437197579
 30
0.0
 11
13.72632226543413
 21
12.73198191431205
 31
0.0
  0
LINE
  5
B3C
330
1F
100
AcDbEntity
  8
OBJECT1
100
AcDbLine
 10
13.79398151683346
 20
12.78769860538119
 30
0.0
 11
13.78948709970214
 21
12.80007074514946
 31
0.0
  0
LINE
  5
B3D
330
1F
100
AcDbEntity
  8
OBJECT2
100
AcDbLine
 10
13.79068317539388
 20
12.73199437197579
 30
0.0
 11
13.8030071641923
 21
12.76287020162098
 31
0.0
  0
LINE
  5
B3E
330
1F
100
AcDbEntity
  8
OBJECT2
100
AcDbLine
 10
13.80301948188228
 20
12.68684905838417
 30
0.0
 11
13.79068317539388
 21
12.73199437197579
 31
0.0
  0
ARC
  5
B3F
330
1F
100
AcDbEntity
  8
OBJECT2
100
AcDbCircle
 10
13.59991576544786
 20
12.73125351143826
 30
0.0
 40
0.0118987433704415
100
AcDbArc
 50
0.0790559999979922
 51
89.88687100001634
  0
LINE
  5
B40
330
1F
100
AcDbEntity
  8
OBJECT1
100
AcDbLine
 10
13.60909706361638
 20
12.80880050852129
 30
0.0
 11
13.6335153442898
 21
12.78438838669292
 31
0.0
  0
LINE
  5
B41
330
1F
100
AcDbEntity
  8
OBJECT1
100
AcDbLine
 10
13.7156892306176
 20
12.91333405711381
 30
0.0
 11
13.71568973848143
 21
12.89677614306393
 31
0.0
  0
ARC
  5
B42
330
1F
100
AcDbEntity
  8
OBJECT1
100
AcDbCircle
 10
13.71961955321822
 20
12.89674276916099
 30
0.0
 40
0.003929956448009
100
AcDbArc
 50
179.5134279999994
 51
270.4846039999839
  0
LINE
  5
B43
330
1F
100
AcDbEntity
  8
OBJECT1
100
AcDbLine
 10
13.64703469758144
 20
12.76285779406578
 30
0.0
 11
13.71398609891946
 21
12.762864042776
 31
0.0
  0
LINE
  5
B44
330
1F
100
AcDbEntity
  8
OBJECT1
100
AcDbLine
 10
13.71398609891946
 20
12.762864042776
 30
0.0
 11
13.71398609891946
 21
12.762864042776
 31
0.0
  0
ARC
  5
B45
330
1F
100
AcDbEntity
  8
OBJECT1
100
AcDbCircle
 10
13.64225446538276
 20
12.79309027476853
 30
0.0
 40
0.0123326558538967
100
AcDbArc
 50
224.8771970000085
 51
270.0378270000047
  0
LINE
  5
B46
330
1F
100
AcDbEntity
  8
OBJECT1
100
AcDbLine
 10
13.64703414901615
 20
12.78076404639016
 30
0.0
 11
13.64703470891113
 21
12.76286420326976
 31
0.0
  0
LINE
  5
B47
330
1F
100
AcDbEntity
  8
OBJECT1
100
AcDbLine
 10
13.64703414901615
 20
12.78076404639016
 30
0.0
 11
13.64226272383409
 21
12.78075760759765
 31
0.0
  0
LINE
  5
B48
330
1F
100
AcDbEntity
  8
OBJECT1
100
AcDbLine
 10
13.72751806117841
 20
12.80005912732822
 30
0.0
 11
13.71398609891946
 21
12.762864042776
 31
0.0
  0
LINE
  5
B49
330
1F
100
AcDbEntity
  8
OBJECT2
100
AcDbLine
 10
13.72632226543413
 20
12.73198191431205
 30
0.0
 11
13.71398609891946
 21
12.762864042776
 31
0.0
  0
LINE
  5
B4A
330
1F
100
AcDbEntity
  8
OBJECT2
100
AcDbLine
 10
13.71398651884071
 20
12.68685563715044
 30
0.0
 11
13.72632226543413
 21
12.73198191431205
 31
0.0
  0
ARC
  5
B4B
330
1F
100
AcDbEntity
  8
OBJECT1
100
AcDbCircle
 10
13.60033428695958
 20
12.80003997144453
 30
0.0
 40
0.0123910519226099
100
AcDbArc
 50
44.99301099999363
 51
89.98518799999619
  0
LINE
  5
B4C
330
1F
100
AcDbEntity
  8
OBJECT2
100
AcDbLine
 10
13.60507351817926
 20
12.80019786183425
 30
0.0
 11
13.60507393810051
 21
12.74197983985679
 31
0.0
  0
LINE
  5
B4D
330
1F
100
AcDbEntity
  8
OBJECT2
100
AcDbLine
 10
13.59993914106405
 20
12.74315225998485
 30
0.0
 11
13.52471598817467
 21
12.74315827885607
 31
0.0
  0
LINE
  5
B4E
330
1F
100
AcDbEntity
  8
OBJECT2
100
AcDbLine
 10
13.61181549381061
 20
12.66396617029202
 30
0.0
 11
13.61181549381061
 21
12.66396617029202
 31
0.0
  0
ARC
  5
B5C
330
1F
100
AcDbEntity
  8
OBJECT1
100
AcDbCircle
 10
13.21359234531226
 20
12.96716589918005
 30
0.0
 40
0.0123724443617318
100
AcDbArc
 50
315.0017549999901
 51
44.99825299999881
  0
LINE
  5
B5D
330
1F
100
AcDbEntity
  8
OBJECT1
100
AcDbLine
 10
13.60033764632957
 20
12.81243100766903
 30
0.0
 11
13.22719464438036
 21
12.81243142759028
 31
0.0
  0
ARC
  5
B5E
330
1F
100
AcDbEntity
  8
OBJECT2
100
AcDbCircle
 10
13.52470828961839
 20
12.73128920474446
 30
0.0
 40
0.0118690504541467
100
AcDbArc
 50
89.96262400000231
 51
180.0367429999996
  0
LINE
  5
B5F
330
1F
100
AcDbEntity
  8
OBJECT1
100
AcDbLine
 10
13.71965286697068
 20
12.89281286616248
 30
0.0
 11
13.84812133440321
 21
12.89280698726498
 31
0.0
  0
LINE
  5
B60
330
1F
100
AcDbEntity
  8
OBJECT1
100
AcDbLine
 10
13.79398151683346
 20
12.78769860538119
 30
0.0
 11
13.86493966956737
 21
12.78769902530241
 31
0.0
  0
LINE
  5
B61
330
1F
100
AcDbEntity
  8
OBJECT1
100
AcDbLine
 10
13.72026863351832
 20
12.91729710484468
 30
0.0
 11
13.84812149639945
 21
12.91730886263965
 31
0.0
  0
ARC
  5
B62
330
1F
100
AcDbEntity
  8
OBJECT1
100
AcDbCircle
 10
23.23987059065183
 20
12.8223842750209
 30
0.0
 40
0.0484875855828642
100
AcDbArc
 50
102.1143365401392
 51
257.8866027425815
  0
ARC
  5
B63
330
1F
100
AcDbEntity
  8
OBJECT1
100
AcDbCircle
 10
23.23987059065183
 20
12.9171998823826
 30
0.0
 40
0.0484875855828642
100
AcDbArc
 50
102.1133972574184
 51
257.8856634598607
  0
ARC
  5
B64
330
1F
100
AcDbEntity
  8
OBJECT2
100
AcDbCircle
 10
23.21951906925289
 20
12.9171998823826
 30
0.0
 40
0.0484875855828642
100
AcDbArc
 50
282.1143365401392
 51
77.88660274260699
  0
LINE
  5
B65
330
1F
100
AcDbEntity
  8
OBJECT2
100
AcDbLine
 10
23.2765690007495
 20
13.21595025390221
 30
0.0
 11
23.47718796220282
 21
13.21595025390221
 31
0.0
  0
LINE
  5
B66
330
1F
100
AcDbEntity
  8
OBJECT2
100
AcDbLine
 10
22.566981122242
 20
12.61423866977285
 30
0.0
 11
22.83612388878761
 21
12.61423866977285
 31
0.0
  0
LINE
  5
B67
330
1F
100
AcDbEntity
  8
OBJECT2
100
AcDbLine
 10
23.47718796220282
 20
12.96460785287421
 30
0.0
 11
23.47718796220282
 21
13.21595025390221
 31
0.0
  0
LINE
  5
B68
330
1F
100
AcDbEntity
  8
OBJECT2
100
AcDbLine
 10
23.47718796220282
 20
12.61423866977285
 30
0.0
 11
23.47718796220289
 21
12.77497171317574
 31
0.0
  0
LINE
  5
B69
330
1F
100
AcDbEntity
  8
OBJECT2
100
AcDbLine
 10
27.96463647610992
 20
12.01252708564347
 30
0.0
 11
27.96463647610992
 21
12.61423866977285
 31
0.0
  0
LINE
  5
B6A
330
1F
100
AcDbEntity
  8
OBJECT2
100
AcDbLine
 10
26.68250832927931
 20
12.01252708564347
 30
0.0
 11
26.68250832927931
 21
12.61423866977285
 31
0.0
  0
LINE
  5
B6B
330
1F
100
AcDbEntity
  8
OBJECT1
100
AcDbLine
 10
26.0470438249456
 20
12.4675095922021
 30
0.0
 11
25.98657126982812
 21
12.52798214731956
 31
0.0
  0
LINE
  5
B6C
330
1F
100
AcDbEntity
  8
OBJECT2
100
AcDbLine
 10
25.84837814398246
 20
12.40656708694996
 30
0.0
 11
25.98657100136191
 21
12.54476101819434
 31
0.0
  0
LINE
  5
B6D
330
1F
100
AcDbEntity
  8
OBJECT2
100
AcDbLine
 10
25.73877640310762
 20
12.33455115513145
 30
0.0
 11
26.05858921514334
 21
12.6543628933023
 31
0.0
  0
LINE
  5
B6E
330
1F
100
AcDbEntity
  8
OBJECT2
100
AcDbLine
 10
25.6384374183146
 20
12.4590427042575
 30
0.0
 11
25.41197796554829
 21
12.68551960732872
 31
0.0
  0
LINE
  5
B6F
330
1F
100
AcDbEntity
  8
OBJECT2
100
AcDbLine
 10
25.39771502594284
 20
12.44195268102278
 30
0.0
 11
25.39771542864222
 21
12.63545387712989
 31
0.0
  0
ARC
  5
B70
330
1F
100
AcDbEntity
  8
OBJECT2
100
AcDbCircle
 10
25.40967680726248
 20
12.49593291731331
 30
0.0
 40
0.0119618383676841
100
AcDbArc
 50
179.9368289999995
 51
249.3921360000141
  0
LINE
  5
B71
330
1F
100
AcDbEntity
  8
OBJECT2
100
AcDbLine
 10
25.12245659635661
 20
12.70275460603996
 30
0.0
 11
25.12245659635661
 21
11.92823652515826
 31
0.0
  0
LINE
  5
B72
330
1F
100
AcDbEntity
  8
OBJECT2
100
AcDbLine
 10
25.17940083857828
 20
11.96856067506497
 30
0.0
 11
25.17940124127759
 21
12.62915659901866
 31
0.0
  0
LINE
  5
B73
330
1F
100
AcDbEntity
  8
OBJECT2
100
AcDbLine
 10
24.86317611614796
 20
12.48798866330552
 30
0.0
 11
24.86317611614796
 21
12.1437031647516
 31
0.0
  0
ARC
  5
B74
330
1F
100
AcDbEntity
  8
OBJECT1
100
AcDbCircle
 10
24.84419268701116
 20
12.50697209244232
 30
0.0
 40
0.0189834291368059
100
AcDbArc
 50
270.0
 51
0.0
  0
LINE
  5
B75
330
1F
100
AcDbEntity
  8
OBJECT2
100
AcDbLine
 10
25.01614974151591
 20
12.31730686922516
 30
0.0
 11
25.01614963716258
 21
12.60772602298743
 31
0.0
  0
LINE
  5
B76
330
1F
100
AcDbEntity
  8
OBJECT2
100
AcDbLine
 10
24.91553156538449
 20
12.60772602298743
 30
0.0
 11
24.91553261216878
 21
12.02396580506968
 31
0.0
  0
LINE
  5
B77
330
1F
100
AcDbEntity
  8
OBJECT2
100
AcDbLine
 10
25.06544450699033
 20
11.96218362721377
 30
0.0
 11
25.0655083316663
 21
12.70276494747852
 31
0.0
  0
LINE
  5
B78
330
1F
100
AcDbEntity
  8
OBJECT1
100
AcDbLine
 10
24.84419268701116
 20
12.4879886633055
 30
0.0
 11
24.77011428632067
 21
12.46093456471132
 31
0.0
  0
LINE
  5
B79
330
1F
100
AcDbEntity
  8
OBJECT2
100
AcDbLine
 10
24.11825203561816
 20
12.41066463063251
 30
0.0
 11
24.11825203561816
 21
12.61423866977285
 31
0.0
  0
LINE
  5
B7A
330
1F
100
AcDbEntity
  8
OBJECT2
100
AcDbLine
 10
25.63843768678081
 20
12.4429489592003
 30
0.0
 11
25.95635002637822
 21
12.76086129879772
 31
0.0
  0
LINE
  5
B7B
102
{ACAD_REACTORS
330
871
102
}
330
1F
100
AcDbEntity
  8
OBJECT1
100
AcDbLine
 10
25.8092975929794
 20
9.745849343391229
 30
0.0
 11
25.8092975929794
 21
8.951611182558936
 31
0.0
  0
LINE
  5
B7C
102
{ACAD_REACTORS
330
871
102
}
330
1F
100
AcDbEntity
  8
OBJECT1
100
AcDbLine
 10
25.1634296904409
 20
9.745849343391229
 30
0.0
 11
25.1634296904409
 21
8.961593862990614
 31
0.0
  0
LINE
  5
B7D
102
{ACAD_REACTORS
330
871
102
}
330
1F
100
AcDbEntity
  8
OBJECT1
100
AcDbLine
 10
25.8092975929794
 20
9.194942779292393
 30
0.0
 11
29.41780615933851
 21
9.194942779292393
 31
0.0
  0
LINE
  5
B7E
330
1F
100
AcDbEntity
  8
TEXT
100
AcDbLine
 10
26.32668815676773
 20
8.322014277819
 30
0.0
 11
26.76897464765236
 21
8.322014277819
 31
0.0
  0
LINE
  5
B7F
330
1F
100
AcDbEntity
  8
TEXT
100
AcDbLine
 10
26.62162162342342
 20
8.457558719186099
 30
0.0
 11
26.76897464765236
 21
8.322014277819
 31
0.0
  0
LINE
  5
B80
330
1F
100
AcDbEntity
  8
TEXT
100
AcDbLine
 10
26.82402975134971
 20
8.457558719186099
 30
0.0
 11
26.62162162342342
 21
8.457558719186099
 31
0.0
  0
LINE
  5
B81
330
1F
100
AcDbEntity
  8
TEXT
100
AcDbLine
 10
27.04008611592826
 20
8.241617822986489
 30
0.0
 11
26.82402975134971
 21
8.457558719186099
 31
0.0
  0
ARC
  5
B82
330
1F
100
AcDbEntity
  8
OBJECT2
100
AcDbCircle
 10
25.32489666607553
 20
8.923239414615458
 30
0.0
 40
0.1659597780510388
100
AcDbArc
 50
13.36224781238186
 51
166.6377521876244
  0
ARC
  5
B83
330
1F
100
AcDbEntity
  8
OBJECT1
100
AcDbCircle
 10
25.32489666607553
 20
8.999948311365754
 30
0.0
 40
0.1659597780510388
100
AcDbArc
 50
193.3622478123755
 51
346.6377521876181
  0
ARC
  5
B84
330
1F
100
AcDbEntity
  8
OBJECT1
100
AcDbCircle
 10
25.64783061734477
 20
8.999948311365754
 30
0.0
 40
0.1659597780510388
100
AcDbArc
 50
193.3622478123818
 51
346.6377521876244
  0
LINE
  5
B85
330
1F
100
AcDbEntity
  8
TEXT
100
AcDbLine
 10
26.32668815676773
 20
8.161221368153993
 30
0.0
 11
26.76897464765236
 21
8.161221368153993
 31
0.0
  0
LINE
  5
B86
330
1F
100
AcDbEntity
  8
TEXT
100
AcDbLine
 10
26.82402975134971
 20
8.025676926786879
 30
0.0
 11
26.62162162342342
 21
8.025676926786879
 31
0.0
  0
LINE
  5
B87
330
1F
100
AcDbEntity
  8
TEXT
100
AcDbLine
 10
26.62162162342342
 20
8.025676926786879
 30
0.0
 11
26.76897464765236
 21
8.161221368153993
 31
0.0
  0
LINE
  5
B88
330
1F
100
AcDbEntity
  8
TEXT
100
AcDbLine
 10
26.32668815676773
 20
8.322014277819
 30
0.0
 11
26.32668815676773
 21
8.161221368153993
 31
0.0
  0
LINE
  5
B89
330
1F
100
AcDbEntity
  8
TEXT
100
AcDbLine
 10
27.04008611592826
 20
8.241617822986489
 30
0.0
 11
26.82402975134971
 21
8.025676926786879
 31
0.0
  0
LINE
  5
B8A
330
1F
100
AcDbEntity
  8
OBJECT2
100
AcDbLine
 10
27.32357240269458
 20
12.01252708564347
 30
0.0
 11
28.60570054952519
 21
12.01252708564347
 31
0.0
  0
LINE
  5
B8B
330
1F
100
AcDbEntity
  8
OBJECT2
100
AcDbLine
 10
27.96463647610992
 20
11.41081550151411
 30
0.0
 11
29.24676462294046
 21
11.41081550151411
 31
0.0
  0
LINE
  5
B8C
330
1F
100
AcDbEntity
  8
OBJECT2
100
AcDbLine
 10
28.60570054952525
 20
10.20739233325537
 30
0.0
 11
27.32357240269465
 21
10.20739233325537
 31
0.0
  0
LINE
  5
B8D
330
1F
100
AcDbEntity
  8
OBJECT2
100
AcDbLine
 10
27.32357240269465
 20
10.80910391738474
 30
0.0
 11
28.60570054952525
 21
10.80910391738474
 31
0.0
  0
LINE
  5
B8E
102
{ACAD_REACTORS
330
871
102
}
330
1F
100
AcDbEntity
  8
OBJECT1
100
AcDbLine
 10
29.46632161190247
 20
10.20739233325537
 30
0.0
 11
26.21341117438674
 21
10.20739233325537
 31
0.0
  0
LINE
  5
B8F
330
1F
100
AcDbEntity
  8
OBJECT2
100
AcDbLine
 10
26.04144425586404
 20
12.01252708564347
 30
0.0
 11
27.32357240269458
 21
12.01252708564347
 31
0.0
  0
LINE
  5
B90
330
1F
100
AcDbEntity
  8
OBJECT2
100
AcDbLine
 10
26.04144425586404
 20
11.41081550151411
 30
0.0
 11
26.04144425586404
 21
12.01252708564347
 31
0.0
  0
LINE
  5
B91
330
1F
100
AcDbEntity
  8
OBJECT2
100
AcDbLine
 10
26.04144425586404
 20
11.41081550151411
 30
0.0
 11
26.04144425586404
 21
12.01252708564347
 31
0.0
  0
LINE
  5
B92
330
1F
100
AcDbEntity
  8
OBJECT2
100
AcDbLine
 10
26.68250832927931
 20
11.41081550151411
 30
0.0
 11
27.96463647610992
 21
11.41081550151411
 31
0.0
  0
LINE
  5
B93
330
1F
100
AcDbEntity
  8
OBJECT2
100
AcDbLine
 10
27.32357240269458
 20
11.41081550151411
 30
0.0
 11
27.32357240269458
 21
12.01252708564347
 31
0.0
  0
LINE
  5
B94
330
1F
100
AcDbEntity
  8
TEXT
100
AcDbLine
 10
25.76029365273985
 20
12.05193024185176
 30
0.0
 11
27.01259322239721
 21
12.05193024185176
 31
0.0
  0
LINE
  5
B95
330
1F
100
AcDbEntity
  8
OBJECT1
100
AcDbLine
 10
25.73491773799167
 20
12.33069302694794
 30
0.0
 11
25.74532120708242
 21
12.32028928939093
 31
0.0
  0
LINE
  5
B96
330
1F
100
AcDbEntity
  8
OBJECT1
100
AcDbLine
 10
25.73877640310762
 20
12.33455115513145
 30
0.0
 11
25.73072442972069
 21
12.33455075243212
 31
0.0
  0
LINE
  5
B97
330
1F
100
AcDbEntity
  8
OBJECT1
100
AcDbLine
 10
25.73491773799167
 20
12.33069302694794
 30
0.0
 11
25.73491773799167
 21
12.33069302694794
 31
0.0
  0
LINE
  5
B98
330
1F
100
AcDbEntity
  8
OBJECT1
100
AcDbLine
 10
26.04704342224623
 20
12.45073005016173
 30
0.0
 11
25.94240790391702
 21
12.34609560569741
 31
0.0
  0
LINE
  5
B99
330
1F
100
AcDbEntity
  8
OBJECT1
100
AcDbLine
 10
25.92562930150845
 20
12.34609506876495
 30
0.0
 11
25.86515661215787
 21
12.4065674896493
 31
0.0
  0
LINE
  5
B9A
330
1F
100
AcDbEntity
  8
OBJECT1
100
AcDbLine
 10
25.76210034642341
 20
12.32028928939093
 30
0.0
 11
25.84837814398246
 21
12.40656708694996
 31
0.0
  0
ARC
  5
B9B
330
1F
100
AcDbEntity
  8
OBJECT1
100
AcDbCircle
 10
25.75371077675295
 20
12.32867993292636
 30
0.0
 40
0.0118654025476691
100
AcDbArc
 50
225.0035099999956
 51
314.9960630000079
  0
ARC
  5
B9C
330
1F
100
AcDbEntity
  8
OBJECT1
100
AcDbCircle
 10
25.85676744518672
 20
12.398176980347
 30
0.0
 40
0.0118650228790864
100
AcDbArc
 50
45.00524099999625
 51
134.9969400000095
  0
LINE
  5
B9D
330
1F
100
AcDbEntity
  8
OBJECT2
100
AcDbLine
 10
25.99472552884852
 20
12.39841323062893
 30
0.0
 11
25.91747423708937
 21
12.47566425392182
 31
0.0
  0
ARC
  5
B9E
330
1F
100
AcDbEntity
  8
OBJECT1
100
AcDbCircle
 10
25.9340183342465
 20
12.35448759156398
 30
0.0
 40
0.011866351719126
100
AcDbArc
 50
225.0122380000093
 51
314.9916990000068
  0
ARC
  5
B9F
330
1F
100
AcDbEntity
  8
OBJECT1
100
AcDbCircle
 10
26.03865358410949
 20
12.45911988829847
 30
0.0
 40
0.0118652127133778
100
AcDbArc
 50
315.0000000000046
 51
44.99825299999881
  0
LINE
  5
BA0
330
1F
100
AcDbEntity
  8
OBJECT1
  6
CONTINUOUS
100
AcDbLine
 10
25.73846956042707
 20
11.60056547290844
 30
0.0
 11
25.73579460542742
 21
11.60815390887158
 31
0.0
  0
ARC
  5
BA1
330
1F
100
AcDbEntity
  8
OBJECT1
  6
CONTINUOUS
100
AcDbCircle
 10
25.72056609857387
 20
11.59425443189191
 30
0.0
 40
0.0189834291368059
100
AcDbArc
 50
270.0005489999822
 51
19.41766399999897
  0
SOLID
  5
BA2
330
1F
100
AcDbEntity
  8
TEXT
100
AcDbTrace
 10
26.90266233205755
 20
11.8620959504837
 30
0.0
 11
26.8393842349349
 21
11.8620959504837
 31
0.0
 12
26.87102328349626
 22
12.05193024185176
 32
0.0
 13
26.87102328349626
 23
12.05193024185176
 33
0.0
  0
LINE
  5
BA3
330
1F
100
AcDbEntity
  8
TEXT
100
AcDbLine
 10
26.87102328349626
 20
11.488721639608
 30
0.0
 11
26.87102328349626
 21
12.05193024185176
 31
0.0
  0
LINE
  5
BA4
330
1F
100
AcDbEntity
  8
OBJECT2
100
AcDbLine
 10
25.75047352266473
 20
11.41081550151411
 30
0.0
 11
26.68250832927937
 21
11.41081550151411
 31
0.0
  0
LINE
  5
BA5
330
1F
100
AcDbEntity
  8
OBJECT2
100
AcDbLine
 10
24.75931610903349
 20
11.41081550151411
 30
0.0
 11
24.75931610903349
 21
12.01252708564347
 31
0.0
  0
LINE
  5
BA6
330
1F
100
AcDbEntity
  8
OBJECT2
100
AcDbLine
 10
25.49263246946516
 20
12.28008808232724
 30
0.0
 11
25.49263233523205
 21
12.42511743223982
 31
0.0
  0
LINE
  5
BA7
330
1F
100
AcDbEntity
  8
OBJECT2
100
AcDbLine
 10
25.4280837915858
 20
12.24267543398893
 30
0.0
 11
25.42808338888649
 21
12.46804545079609
 31
0.0
  0
LINE
  5
BA8
330
1F
100
AcDbEntity
  8
OBJECT1
100
AcDbLine
 10
25.57045948705331
 20
12.32783050577637
 30
0.0
 11
25.57045937320326
 21
12.08592524653231
 31
0.0
  0
LINE
  5
BA9
330
1F
100
AcDbEntity
  8
OBJECT2
100
AcDbLine
 10
25.57045937320326
 20
12.08592524653231
 30
0.0
 11
25.40150368727138
 21
12.08592524653231
 31
0.0
  0
LINE
  5
BAA
330
1F
100
AcDbEntity
  8
OBJECT2
100
AcDbLine
 10
25.40150415830541
 20
12.12762651331842
 30
0.0
 11
25.4015040240723
 21
12.22423529408627
 31
0.0
  0
LINE
  5
BAB
330
1F
100
AcDbEntity
  8
OBJECT1
100
AcDbLine
 10
25.40150362137293
 20
12.12769040828103
 30
0.0
 11
25.40150368727138
 21
12.08592524653231
 31
0.0
  0
LINE
  5
BAC
330
1F
100
AcDbEntity
  8
OBJECT1
100
AcDbLine
 10
25.60738950397257
 20
12.08592524653231
 30
0.0
 11
25.57045937320326
 21
12.08592524653231
 31
0.0
  0
ARC
  5
BAD
330
1F
100
AcDbEntity
  8
OBJECT1
  6
CONTINUOUS
100
AcDbCircle
 10
25.60738932345553
 20
12.08022983812554
 30
0.0
 40
0.0056954084096245
100
AcDbArc
 50
0.0027160000020878
 51
89.99818400000453
  0
LINE
  5
BAE
330
1F
100
AcDbEntity
  8
OBJECT2
100
AcDbLine
 10
25.48076733598808
 20
12.43699343859915
 30
0.0
 11
25.43994785119791
 21
12.43698189455129
 31
0.0
  0
LINE
  5
BAF
330
1F
100
AcDbEntity
  8
OBJECT2
100
AcDbLine
 10
25.42037854233423
 20
12.47912787098116
 30
0.0
 11
25.40546631715282
 21
12.4847361305145
 31
0.0
  0
ARC
  5
BB0
330
1F
100
AcDbEntity
  8
OBJECT2
100
AcDbCircle
 10
25.43997080506059
 20
12.44886917649227
 30
0.0
 40
0.0118872334911765
100
AcDbArc
 50
180.1098330000031
 51
269.8895570000004
  0
ARC
  5
BB1
330
1F
100
AcDbEntity
  8
OBJECT2
100
AcDbCircle
 10
25.4162571830127
 20
12.46804357153248
 30
0.0
 40
0.0118259170150646
100
AcDbArc
 50
359.9243320000029
 51
69.60372900001018
  0
LINE
  5
BB2
330
1F
100
AcDbEntity
  8
OBJECT1
100
AcDbLine
 10
25.56632295938987
 20
12.37081678150444
 30
0.0
 11
25.63843768678081
 21
12.4429489592003
 31
0.0
  0
ARC
  5
BB3
330
1F
100
AcDbEntity
  8
OBJECT2
100
AcDbCircle
 10
25.4964410656293
 20
12.32784057325997
 30
0.0
 40
0.0740120240157045
100
AcDbArc
 50
24.13735999999776
 51
84.62607199999231
  0
ARC
  5
BB4
330
1F
100
AcDbEntity
  8
OBJECT2
100
AcDbCircle
 10
25.48071511930642
 20
12.42507581997425
 30
0.0
 40
0.0119177968120867
100
AcDbArc
 50
0.2000269999978384
 51
89.74889800000187
  0
ARC
  5
BB5
330
1F
100
AcDbEntity
  8
OBJECT2
100
AcDbCircle
 10
25.5045189460074
 20
12.41335914832209
 30
0.0
 40
0.0118872334911765
100
AcDbArc
 50
180.0394900000009
 51
264.4665989999988
  0
ARC
  5
BB6
330
1F
100
AcDbEntity
  8
OBJECT1
100
AcDbCircle
 10
25.49666120793746
 20
12.32787332613996
 30
0.0
 40
0.0737984604379155
100
AcDbArc
 50
359.9669039999993
 51
24.18408999999996
  0
ARC
  5
BB7
330
1F
100
AcDbEntity
  8
OBJECT1
100
AcDbCircle
 10
25.57434714652209
 20
12.36276843241157
 30
0.0
 40
0.0113649993556229
100
AcDbArc
 50
134.9142059999954
 51
204.219603999999
  0
ARC
  5
BB8
330
1F
100
AcDbEntity
  8
OBJECT1
100
AcDbCircle
 10
25.64648429084323
 20
12.43489644888086
 30
0.0
 40
0.0113837929504684
100
AcDbArc
 50
134.9790430000088
 51
225.0218810000037
  0
ARC
  5
BB9
330
1F
100
AcDbEntity
  8
OBJECT2
100
AcDbCircle
 10
25.63040410333055
 20
12.45099596596201
 30
0.0
 40
0.011370694384364
100
AcDbArc
 50
314.9525599999924
 51
45.04744000000756
  0
LINE
  5
BBA
330
1F
100
AcDbEntity
  8
OBJECT2
100
AcDbLine
 10
25.63843768678081
 20
12.4429489592003
 30
0.0
 11
25.63843768678081
 21
12.4429489592003
 31
0.0
  0
LINE
  5
BBB
330
1F
100
AcDbEntity
  8
OBJECT2
100
AcDbLine
 10
25.17940124127759
 20
12.26522834229373
 30
0.0
 11
25.20596879357768
 21
12.2652343827839
 31
0.0
  0
LINE
  5
BBC
330
1F
100
AcDbEntity
  8
OBJECT2
100
AcDbLine
 10
25.17940124127759
 20
12.3790548019884
 30
0.0
 11
25.20598074032488
 21
12.37906070824545
 31
0.0
  0
LINE
  5
BBD
330
1F
100
AcDbEntity
  8
OBJECT2
100
AcDbLine
 10
25.20598087455799
 20
12.41201265594825
 30
0.0
 11
25.20598033762557
 21
12.2352773101038
 31
0.0
  0
LINE
  5
BBE
330
1F
100
AcDbEntity
  8
OBJECT1
100
AcDbLine
 10
25.38546826772066
 20
12.13872665227464
 30
0.0
 11
25.21366236454838
 21
12.07413139550452
 31
0.0
  0
ARC
  5
BBF
330
1F
100
AcDbEntity
  8
OBJECT1
  6
CONTINUOUS
100
AcDbCircle
 10
25.36533814979897
 20
12.08022983812554
 30
0.0
 40
0.0056954084096245
100
AcDbArc
 50
90.00181599999546
 51
179.9972839999979
  0
LINE
  5
BC0
330
1F
100
AcDbEntity
  8
OBJECT1
100
AcDbLine
 10
25.40150368727138
 20
12.08592524653231
 30
0.0
 11
25.36533796928199
 21
12.08592524653231
 31
0.0
  0
ARC
  5
BC1
330
1F
100
AcDbEntity
  8
OBJECT1
100
AcDbCircle
 10
25.38964358875428
 20
12.12762409712236
 30
0.0
 40
0.0118604668560936
100
AcDbArc
 50
0.0111240000026246
 51
110.6098920000111
  0
LINE
  5
BC2
330
1F
100
AcDbEntity
  8
OBJECT1
  6
CONTINUOUS
100
AcDbLine
 10
25.43890516378527
 20
11.93026093777908
 30
0.0
 11
25.43890516378527
 21
11.59994927079866
 31
0.0
  0
LINE
  5
BC3
330
1F
100
AcDbEntity
  8
OBJECT1
  6
CONTINUOUS
100
AcDbLine
 10
25.53382230946929
 20
11.93026093777908
 30
0.0
 11
25.53382230946929
 21
11.59994927079866
 31
0.0
  0
ARC
  5
BC4
330
1F
100
AcDbEntity
  8
OBJECT1
  6
CONTINUOUS
100
AcDbCircle
 10
25.41422651607314
 20
11.59994965046724
 30
0.0
 40
0.024678647712139
100
AcDbArc
 50
270.0008539999869
 51
359.999146
  0
ARC
  5
BC5
330
1F
100
AcDbEntity
  8
OBJECT1
  6
CONTINUOUS
100
AcDbCircle
 10
25.55850095718142
 20
11.59994965046724
 30
0.0
 40
0.024678647712139
100
AcDbArc
 50
180.0008389999984
 51
269.9991589999986
  0
ARC
  5
BC6
330
1F
100
AcDbEntity
  8
OBJECT1
  6
CONTINUOUS
100
AcDbCircle
 10
25.4142267059074
 20
11.93026093777908
 30
0.0
 40
0.0246784578778476
100
AcDbArc
 50
0.000214000000694
 51
89.99957300001955
  0
ARC
  5
BC7
330
1F
100
AcDbEntity
  8
OBJECT1
  6
CONTINUOUS
100
AcDbCircle
 10
25.59675689776141
 20
11.93121010923592
 30
0.0
 40
0.0237292864210073
100
AcDbArc
 50
19.4175555364768
 51
90.0
  0
ARC
  5
BC8
330
1F
100
AcDbEntity
  8
OBJECT1
  6
CONTINUOUS
100
AcDbCircle
 10
25.55850095718142
 20
11.93026074794478
 30
0.0
 40
0.024678647712139
100
AcDbArc
 50
90.00083899998543
 51
179.9995799999968
  0
LINE
  5
BC9
330
1F
100
AcDbEntity
  8
OBJECT1
  6
CONTINUOUS
100
AcDbLine
 10
25.55850057751284
 20
11.95493939565692
 30
0.0
 11
25.59675689776141
 21
11.95493939565692
 31
0.0
  0
LINE
  5
BCA
330
1F
100
AcDbEntity
  8
OBJECT1
100
AcDbLine
 10
25.62057433684446
 20
11.98969364592251
 30
0.0
 11
25.61308454203093
 21
11.98969364592251
 31
0.0
  0
ARC
  5
BCB
330
1F
100
AcDbEntity
  8
OBJECT1
  6
CONTINUOUS
100
AcDbCircle
 10
25.62057433684446
 20
11.96596435950149
 30
0.0
 40
0.0237292864210073
100
AcDbArc
 50
19.41758860550506
 51
90.0
  0
LINE
  5
BCC
330
1F
100
AcDbEntity
  8
OBJECT1
  6
CONTINUOUS
100
AcDbLine
 10
25.32977356941353
 20
11.97385318652534
 30
0.0
 11
25.18927288080197
 21
11.57527100275509
 31
0.0
  0
LINE
  5
BCD
330
1F
100
AcDbEntity
  8
OBJECT1
  6
CONTINUOUS
100
AcDbLine
 10
25.23693286782714
 20
11.60815390887158
 30
0.0
 11
25.35359099097805
 21
11.93909891339003
 31
0.0
  0
ARC
  5
BCE
330
1F
100
AcDbEntity
  8
OBJECT1
  6
CONTINUOUS
100
AcDbCircle
 10
25.25216137468069
 20
11.59425443189191
 30
0.0
 40
0.0189834291368059
100
AcDbArc
 50
160.582336000001
 51
269.9994540000023
  0
LINE
  5
BCF
330
1F
100
AcDbEntity
  8
OBJECT1
  6
CONTINUOUS
100
AcDbLine
 10
25.23425772299316
 20
11.60056547290844
 30
0.0
 11
25.23693286782714
 21
11.60815390887158
 31
0.0
  0
ARC
  5
BD0
330
1F
100
AcDbEntity
  8
OBJECT1
100
AcDbCircle
 10
25.19410285470197
 20
11.99230866079021
 30
0.0
 40
0.0118779316108994
100
AcDbArc
 50
270.0635990000031
 51
359.9644930000005
  0
ARC
  5
BD1
330
1F
100
AcDbEntity
  8
OBJECT1
100
AcDbCircle
 10
25.16756282019039
 20
11.94007157572753
 30
0.0
 40
0.0118378765754208
100
AcDbArc
 50
269.8704990000034
 51
0.1295010000031199
  0
LINE
  5
BD2
330
1F
100
AcDbEntity
  8
OBJECT1
100
AcDbLine
 10
25.16753606402152
 20
11.92823372938952
 30
0.0
 11
25.07737296539906
 21
11.92823372938952
 31
0.0
  0
ARC
  5
BD3
330
1F
100
AcDbEntity
  8
OBJECT1
100
AcDbCircle
 10
25.19122033279633
 20
11.96860577739152
 30
0.0
 40
0.0118194626491581
100
AcDbArc
 50
89.78094499999938
 51
180.2190550000006
  0
LINE
  5
BD4
330
1F
100
AcDbEntity
  8
OBJECT1
100
AcDbLine
 10
25.17940083857828
 20
11.96856067506497
 30
0.0
 11
25.17940070434518
 21
11.94009828811737
 31
0.0
  0
LINE
  5
BD5
330
1F
100
AcDbEntity
  8
OBJECT1
100
AcDbLine
 10
25.19411614378036
 20
11.98043077516725
 30
0.0
 11
25.19126543512281
 21
11.98042527160956
 31
0.0
  0
LINE
  5
BD6
330
1F
100
AcDbEntity
  8
OBJECT1
100
AcDbLine
 10
25.20598087455799
 20
12.06302535029126
 30
0.0
 11
25.20598047185867
 21
11.9923012779689
 31
0.0
  0
ARC
  5
BD7
330
1F
100
AcDbEntity
  8
OBJECT1
  6
CONTINUOUS
100
AcDbCircle
 10
25.35215314586704
 20
11.96596435950149
 30
0.0
 40
0.0237292864210073
100
AcDbArc
 50
90.0
 51
160.5823859128628
  0
ARC
  5
BD8
330
1F
100
AcDbEntity
  8
OBJECT1
  6
CONTINUOUS
100
AcDbCircle
 10
25.37597057549315
 20
11.93121010923592
 30
0.0
 40
0.0237292864210073
100
AcDbArc
 50
90.0
 51
160.5824444635232
  0
LINE
  5
BD9
330
1F
100
AcDbEntity
  8
OBJECT1
100
AcDbLine
 10
25.35215314586704
 20
11.98969364592251
 30
0.0
 11
25.3596429312237
 21
11.98969364592251
 31
0.0
  0
LINE
  5
BDA
330
1F
100
AcDbEntity
  8
OBJECT1
  6
CONTINUOUS
100
AcDbLine
 10
25.41422689574172
 20
11.57527100275509
 30
0.0
 11
25.25216118484637
 21
11.57527100275509
 31
0.0
  0
LINE
  5
BDB
330
1F
100
AcDbEntity
  8
OBJECT2
100
AcDbLine
 10
25.23697827997081
 20
11.60828273763802
 30
0.0
 11
25.43890516378527
 21
11.60828273763802
 31
0.0
  0
LINE
  5
BDC
330
1F
100
AcDbEntity
  8
OBJECT2
100
AcDbLine
 10
25.61308454203093
 20
11.98969364592251
 30
0.0
 11
25.3596429312237
 21
11.98969364592251
 31
0.0
  0
LINE
  5
BDD
330
1F
100
AcDbEntity
  8
OBJECT1
  6
CONTINUOUS
100
AcDbLine
 10
25.41422689574172
 20
11.95493939565692
 30
0.0
 11
25.37597057549315
 21
11.95493939565692
 31
0.0
  0
CIRCLE
  5
BDE
330
1F
100
AcDbEntity
  8
OBJECT2
100
AcDbCircle
 10
25.48636373662725
 20
12.03910031195055
 30
0.0
 40
0.0426890128141405
  0
LINE
  5
BDF
330
1F
100
AcDbEntity
  8
OBJECT1
  6
CONTINUOUS
100
AcDbLine
 10
25.3596429312237
 20
12.08023002795984
 30
0.0
 11
25.3596429312237
 21
11.98969364592251
 31
0.0
  0
ARC
  5
BE0
330
1F
100
AcDbEntity
  8
OBJECT1
100
AcDbCircle
 10
25.21781406055373
 20
12.06305031765061
 30
0.0
 40
0.0118333205524279
100
AcDbArc
 50
110.5393939999893
 51
180.1214900000026
  0
LINE
  5
BE1
330
1F
100
AcDbEntity
  8
OBJECT2
100
AcDbLine
 10
25.20598087455799
 20
12.06302535029126
 30
0.0
 11
25.20596892781078
 21
12.09748419894
 31
0.0
  0
LINE
  5
BE2
330
1F
100
AcDbEntity
  8
OBJECT1
  6
CONTINUOUS
100
AcDbLine
 10
25.61308454203093
 20
12.08023002795984
 30
0.0
 11
25.61308454203093
 21
11.98969364592251
 31
0.0
  0
LINE
  5
BE3
330
1F
100
AcDbEntity
  8
OBJECT1
100
AcDbLine
 10
24.83894037974115
 20
12.07734009159185
 30
0.0
 11
24.83894037974115
 21
12.09032887822942
 31
0.0
  0
LINE
  5
BE4
330
1F
100
AcDbEntity
  8
OBJECT1
100
AcDbLine
 10
24.84102527195695
 20
12.11553734719811
 30
0.0
 11
24.86317611614796
 21
12.11553734719811
 31
0.0
  0
ARC
  5
BE5
330
1F
100
AcDbEntity
  8
OBJECT1
100
AcDbCircle
 10
24.84419268701116
 20
12.12471973561479
 30
0.0
 40
0.0189834291368059
100
AcDbArc
 50
0.0
 51
90.0
  0
LINE
  5
BE6
330
1F
100
AcDbEntity
  8
OBJECT1
100
AcDbLine
 10
24.86317611614796
 20
12.11553734719811
 30
0.0
 11
24.86317611614796
 21
12.12471973561479
 31
0.0
  0
ARC
  5
BE7
330
1F
100
AcDbEntity
  8
OBJECT1
100
AcDbCircle
 10
24.87629773555371
 20
12.08383448491064
 30
0.0
 40
0.0474259229262322
100
AcDbArc
 50
138.0508214825663
 51
172.1293215993773
  0
LINE
  5
BE8
330
1F
100
AcDbEntity
  8
OBJECT1
100
AcDbLine
 10
24.83894037974115
 20
12.09032887822942
 30
0.0
 11
24.82931858038018
 21
12.09032887822942
 31
0.0
  0
LINE
  5
BE9
330
1F
100
AcDbEntity
  8
OBJECT1
100
AcDbLine
 10
24.83894037974115
 20
12.07734009159185
 30
0.0
 11
24.82931858038018
 21
12.07734009159185
 31
0.0
  0
LINE
  5
BEA
330
1F
100
AcDbEntity
  8
OBJECT2
100
AcDbLine
 10
25.06550886244697
 20
12.08111374163598
 30
0.0
 11
25.03399241597665
 21
12.08110810372731
 31
0.0
  0
LINE
  5
BEB
330
1F
100
AcDbEntity
  8
OBJECT2
100
AcDbLine
 10
25.03399241597665
 20
12.08110810372731
 30
0.0
 11
25.027539024753
 21
12.07160681540061
 31
0.0
  0
LINE
  5
BEC
330
1F
100
AcDbEntity
  8
OBJECT1
100
AcDbLine
 10
24.4349483731715
 20
12.44195113557451
 30
0.0
 11
24.4349483731715
 21
12.18974069248258
 31
0.0
  0
ARC
  5
BED
330
1F
100
AcDbEntity
  8
OBJECT1
100
AcDbCircle
 10
24.4539318023083
 20
12.18974069248258
 30
0.0
 40
0.0189834291368059
100
AcDbArc
 50
180.0
 51
270.0
  0
LINE
  5
BEE
330
1F
100
AcDbEntity
  8
OBJECT1
100
AcDbLine
 10
25.02753876873898
 20
12.02396580506968
 30
0.0
 11
24.88215954528476
 21
12.02396580506968
 31
0.0
  0
LINE
  5
BEF
330
1F
100
AcDbEntity
  8
OBJECT1
100
AcDbLine
 10
24.86317611614796
 20
12.04294923420648
 30
0.0
 11
24.86317611614796
 21
12.05213162262317
 31
0.0
  0
ARC
  5
BF0
330
1F
100
AcDbEntity
  8
OBJECT1
100
AcDbCircle
 10
24.88215954528476
 20
12.04294923420648
 30
0.0
 40
0.0189834291368059
100
AcDbArc
 50
180.0
 51
270.0
  0
LINE
  5
BF1
330
1F
100
AcDbEntity
  8
OBJECT1
100
AcDbLine
 10
24.84102527195695
 20
12.05213162262317
 30
0.0
 11
24.86317611614796
 21
12.05213162262317
 31
0.0
  0
LINE
  5
BF2
330
1F
100
AcDbEntity
  8
OBJECT2
100
AcDbLine
 10
25.03399268444286
 20
12.05226919289289
 30
0.0
 11
25.0275388905199
 21
12.02736398348559
 31
0.0
  0
LINE
  5
BF3
330
1F
100
AcDbEntity
  8
OBJECT1
100
AcDbLine
 10
25.06550780088563
 20
11.96218360456836
 30
0.0
 11
25.03399255020975
 21
11.96219488015
 31
0.0
  0
LINE
  5
BF4
330
1F
100
AcDbEntity
  8
OBJECT2
100
AcDbLine
 10
25.06550780088563
 20
11.99102278386901
 30
0.0
 11
25.03399255020975
 21
11.99103405945065
 31
0.0
  0
LINE
  5
BF5
330
1F
100
AcDbEntity
  8
OBJECT2
100
AcDbLine
 10
25.03399255020975
 20
11.99103405945065
 30
0.0
 11
25.027539024753
 21
12.01592772481009
 31
0.0
  0
LINE
  5
BF6
330
1F
100
AcDbEntity
  8
OBJECT1
100
AcDbLine
 10
25.02753876873898
 20
12.02396580506968
 30
0.0
 11
25.02753848782052
 21
11.97169039645275
 31
0.0
  0
LINE
  5
BF7
330
1F
100
AcDbEntity
  8
OBJECT1
100
AcDbLine
 10
25.03399255020975
 20
11.96219488015
 30
0.0
 11
25.02753848782052
 21
11.97169039645275
 31
0.0
  0
LINE
  5
BF8
330
1F
100
AcDbEntity
  8
OBJECT2
100
AcDbLine
 10
25.03399255020975
 20
11.99103405945065
 30
0.0
 11
25.027539024753
 21
11.97961551954631
 31
0.0
  0
LINE
  5
BF9
330
1F
100
AcDbEntity
  8
OBJECT1
100
AcDbLine
 10
25.0655083316663
 20
11.96219199413804
 30
0.0
 11
25.06549677219043
 21
11.94009097669424
 31
0.0
  0
LINE
  5
BFA
330
1F
100
AcDbEntity
  8
OBJECT2
100
AcDbLine
 10
25.06550766665253
 20
12.05227509914994
 30
0.0
 11
25.03399268444286
 21
12.05226919289289
 31
0.0
  0
LINE
  5
BFB
330
1F
100
AcDbEntity
  8
OBJECT2
100
AcDbLine
 10
25.03399268444286
 20
12.05226919289289
 30
0.0
 11
25.0275388905199
 21
12.06367592028314
 31
0.0
  0
LINE
  5
BFC
330
1F
100
AcDbEntity
  8
OBJECT2
100
AcDbLine
 10
24.86317611614796
 20
12.05213162262317
 30
0.0
 11
24.86317611614796
 21
12.11553734719811
 31
0.0
  0
ARC
  5
BFD
330
1F
100
AcDbEntity
  8
OBJECT1
100
AcDbCircle
 10
24.87629773555371
 20
12.08383448491064
 30
0.0
 40
0.0474259229262322
100
AcDbArc
 50
187.8706784006226
 51
221.9491785174336
  0
LINE
  5
BFE
330
1F
100
AcDbEntity
  8
OBJECT2
100
AcDbLine
 10
25.027539024753
 20
12.07160681540061
 30
0.0
 11
25.02753876873898
 21
12.02396580506968
 31
0.0
  0
ARC
  5
BFF
330
1F
100
AcDbEntity
  8
OBJECT1
100
AcDbCircle
 10
25.07736406882528
 20
11.94010102694535
 30
0.0
 40
0.0118673008905828
100
AcDbArc
 50
180.0485229999985
 51
270.042953000019
  0
LINE
  5
C00
330
1F
100
AcDbEntity
  8
OBJECT1
100
AcDbLine
 10
24.84419268701116
 20
12.1437031647516
 30
0.0
 11
24.77011428632067
 21
12.17075726334578
 31
0.0
  0
LINE
  5
C01
330
1F
100
AcDbEntity
  8
OBJECT1
100
AcDbLine
 10
24.77011428632067
 20
12.17075726334578
 30
0.0
 11
24.4539318023083
 21
12.17075726334578
 31
0.0
  0
ARC
  5
C02
330
1F
100
AcDbEntity
  8
OBJECT1
100
AcDbCircle
 10
24.4539318023083
 20
12.44195113557451
 30
0.0
 40
0.0189834291368059
100
AcDbArc
 50
90.0
 51
180.0
  0
LINE
  5
C03
330
1F
100
AcDbEntity
  8
OBJECT1
100
AcDbLine
 10
24.77011428632067
 20
12.46093456471132
 30
0.0
 11
24.4539318023083
 21
12.46093456471132
 31
0.0
  0
LINE
  5
C04
330
1F
100
AcDbEntity
  8
OBJECT1
100
AcDbLine
 10
24.4349483731715
 20
12.18974069248258
 30
0.0
 11
24.3748860797005
 21
12.18974069248258
 31
0.0
  0
LINE
  5
C05
330
1F
100
AcDbEntity
  8
OBJECT1
100
AcDbLine
 10
24.3748860797005
 20
12.18974069248258
 30
0.0
 11
24.3748860797005
 21
12.44195113557451
 31
0.0
  0
LINE
  5
C06
330
1F
100
AcDbEntity
  8
OBJECT1
100
AcDbLine
 10
24.4349483731715
 20
12.44195113557451
 30
0.0
 11
24.3748860797005
 21
12.44195113557451
 31
0.0
  0
LINE
  5
C07
330
1F
100
AcDbEntity
  8
OBJECT1
100
AcDbLine
 10
24.37488607970044
 20
12.4237348025487
 30
0.0
 11
24.14371001952926
 21
12.4237348025487
 31
0.0
  0
LINE
  5
C08
330
1F
100
AcDbEntity
  8
OBJECT1
100
AcDbLine
 10
24.14371001952926
 20
12.4237348025487
 30
0.0
 11
24.1437100195292
 21
12.2079570255084
 31
0.0
  0
LINE
  5
C09
330
1F
100
AcDbEntity
  8
OBJECT1
100
AcDbLine
 10
24.37488607970044
 20
12.2079570255084
 30
0.0
 11
24.14371001952926
 21
12.2079570255084
 31
0.0
  0
LINE
  5
C0A
330
1F
100
AcDbEntity
  8
OBJECT1
100
AcDbLine
 10
24.4349483731715
 20
12.25279330325558
 30
0.0
 11
24.37488607970044
 21
12.25279330325556
 31
0.0
  0
LINE
  5
C0B
330
1F
100
AcDbEntity
  8
OBJECT1
100
AcDbLine
 10
24.4349483731715
 20
12.37889852480153
 30
0.0
 11
24.3748860797005
 21
12.37889852480153
 31
0.0
  0
LINE
  5
C0C
330
1F
100
AcDbEntity
  8
OBJECT2
100
AcDbLine
 10
24.11825203561816
 20
12.01252708564347
 30
0.0
 11
24.11825203561816
 21
12.2210275113444
 31
0.0
  0
LINE
  5
C0D
330
1F
100
AcDbEntity
  8
OBJECT2
100
AcDbLine
 10
24.11825203561816
 20
11.41081550151411
 30
0.0
 11
25.22225379257486
 21
11.41081550151411
 31
0.0
  0
LINE
  5
C0E
330
1F
100
AcDbEntity
  8
OBJECT2
100
AcDbLine
 10
25.20598058702345
 20
12.01252708564346
 30
0.0
 11
25.3596429312237
 21
12.01252708564347
 31
0.0
  0
LINE
  5
C0F
330
1F
100
AcDbEntity
  8
OBJECT2
100
AcDbLine
 10
24.75931610903343
 20
12.01252708564347
 30
0.0
 11
25.02842061897034
 21
12.01252708564346
 31
0.0
  0
LINE
  5
C10
330
1F
100
AcDbEntity
  8
OBJECT1
  6
CONTINUOUS
100
AcDbLine
 10
25.55850057751284
 20
11.57527100275509
 30
0.0
 11
25.72056628840813
 21
11.57527100275509
 31
0.0
  0
LINE
  5
C11
330
1F
100
AcDbEntity
  8
OBJECT1
  6
CONTINUOUS
100
AcDbLine
 10
25.64295391680641
 20
11.97385317657229
 30
0.0
 11
25.78345440261832
 21
11.57527100275509
 31
0.0
  0
LINE
  5
C12
330
1F
100
AcDbEntity
  8
OBJECT1
  6
CONTINUOUS
100
AcDbLine
 10
25.73579460542742
 20
11.60815390887158
 30
0.0
 11
25.61913648227651
 21
11.93909891339003
 31
0.0
  0
LINE
  5
C13
330
1F
100
AcDbEntity
  8
OBJECT2
100
AcDbLine
 10
25.53382230946929
 20
11.60828273763802
 30
0.0
 11
25.73574919328375
 21
11.60828273763802
 31
0.0
  0
LINE
  5
C14
330
1F
100
AcDbEntity
  8
OBJECT1
100
AcDbLine
 10
25.73072442972069
 20
12.33455075243212
 30
0.0
 11
25.63843768678081
 21
12.42684367009521
 31
0.0
  0
LINE
  5
C15
330
1F
100
AcDbEntity
  8
OBJECT2
100
AcDbLine
 10
25.61308454203086
 20
12.01252708564347
 30
0.0
 11
26.04144425586404
 21
12.01252708564347
 31
0.0
  0
LINE
  5
C16
330
1F
100
AcDbEntity
  8
OBJECT2
100
AcDbLine
 10
26.04144425586404
 20
10.80910391738474
 30
0.0
 11
27.32357240269465
 21
10.80910391738474
 31
0.0
  0
LINE
  5
C17
330
1F
100
AcDbEntity
  8
OBJECT2
100
AcDbLine
 10
27.32357240269465
 20
10.20739233325537
 30
0.0
 11
26.04144425586404
 21
10.20739233325537
 31
0.0
  0
LINE
  5
C18
330
1F
100
AcDbEntity
  8
OBJECT2
100
AcDbLine
 10
26.04144425586404
 20
10.20739233325537
 30
0.0
 11
26.04144425586404
 21
10.80910391738474
 31
0.0
  0
LINE
  5
C19
330
1F
100
AcDbEntity
  8
OBJECT2
100
AcDbLine
 10
26.04144425586404
 20
10.20739233325537
 30
0.0
 11
26.04144425586404
 21
10.80910391738474
 31
0.0
  0
LINE
  5
C1A
330
1F
100
AcDbEntity
  8
OBJECT2
100
AcDbLine
 10
27.32357240269465
 20
10.20739233325537
 30
0.0
 11
27.32357240269465
 21
10.80910391738474
 31
0.0
  0
TEXT
  5
C1B
330
1F
100
AcDbEntity
  8
TEXT
100
AcDbText
 10
26.07168080176741
 20
10.92149599719382
 30
0.0
 40
0.1898342913680584
  1
30" MAX.
  7
ROMANS
 72
     1
 11
26.73158095747542
 21
11.01641314287785
 31
0.0
100
AcDbText
 73
     2
  0
LINE
  5
C1C
102
{ACAD_REACTORS
330
871
102
}
330
1F
100
AcDbEntity
  8
OBJECT1
100
AcDbLine
 10
26.11825088733949
 20
9.890720296743229
 30
0.0
 11
25.94170616032259
 21
9.890720296743229
 31
0.0
  0
LINE
  5
C1D
102
{ACAD_REACTORS
330
871
102
}
330
1F
100
AcDbEntity
  8
OBJECT1
100
AcDbLine
 10
25.94170616032259
 20
9.745849343391229
 30
0.0
 11
25.8092975929794
 21
9.745849343391229
 31
0.0
  0
LINE
  5
C1E
102
{ACAD_REACTORS
330
871
102
}
330
1F
100
AcDbEntity
  8
OBJECT1
100
AcDbLine
 10
25.94170616032259
 20
9.890720296743229
 30
0.0
 11
25.94170616032259
 21
9.745849343391229
 31
0.0
  0
LINE
  5
C1F
102
{ACAD_REACTORS
330
871
102
}
330
1F
100
AcDbEntity
  8
OBJECT1
100
AcDbLine
 10
26.21341117438674
 20
10.20739233325537
 30
0.0
 11
26.11825088733949
 21
9.890720296743229
 31
0.0
  0
LINE
  5
C20
330
1F
100
AcDbEntity
  8
TEXT
100
AcDbLine
 10
26.87102328349626
 20
10.84923187752112
 30
0.0
 11
26.87102328349626
 21
10.20739233325535
 31
0.0
  0
SOLID
  5
C21
330
1F
100
AcDbEntity
  8
TEXT
100
AcDbTrace
 10
26.90266233205755
 20
10.39722662462343
 30
0.0
 11
26.8393842349349
 21
10.39722662462343
 31
0.0
 12
26.87102328349626
 22
10.20739233325537
 32
0.0
 13
26.87102328349626
 23
10.20739233325537
 33
0.0
  0
LINE
  5
C22
330
1F
100
AcDbEntity
  8
OBJECT2
100
AcDbLine
 10
24.75931610903349
 20
10.20739233325537
 30
0.0
 11
24.75931610903349
 21
10.80910391738474
 31
0.0
  0
LINE
  5
C23
330
1F
100
AcDbEntity
  8
OBJECT1
100
AcDbLine
 10
25.36483789230568
 20
11.13675378969488
 30
0.0
 11
25.36483789230568
 21
10.55223869553059
 31
0.0
  0
LINE
  5
C24
330
1F
100
AcDbEntity
  8
OBJECT1
100
AcDbLine
 10
25.60788939111462
 20
11.13675378969488
 30
0.0
 11
25.60788939111468
 21
10.55223869553066
 31
0.0
  0
ARC
  5
C25
330
1F
100
AcDbEntity
  8
OBJECT1
100
AcDbCircle
 10
25.54712651641239
 20
10.60054219886887
 30
0.0
 40
0.0776231626309314
100
AcDbArc
 50
218.4829764584357
 51
321.5170235415642
  0
ARC
  5
C26
330
1F
100
AcDbEntity
  8
OBJECT1
100
AcDbCircle
 10
25.42560076700791
 20
10.60054219886887
 30
0.0
 40
0.0776231626309314
100
AcDbArc
 50
218.4829764584357
 51
321.5170235415642
  0
ARC
  5
C27
330
1F
100
AcDbEntity
  8
OBJECT2
100
AcDbCircle
 10
25.42560076700791
 20
10.50393519219239
 30
0.0
 40
0.0776231626309314
100
AcDbArc
 50
38.48297645843576
 51
141.5170235415642
  0
LINE
  5
C28
102
{ACAD_REACTORS
330
871
102
}
330
1F
100
AcDbEntity
  8
OBJECT1
100
AcDbLine
 10
25.03102112309771
 20
9.745849343391229
 30
0.0
 11
25.1634296904409
 21
9.745849343391229
 31
0.0
  0
LINE
  5
C29
102
{ACAD_REACTORS
330
871
102
}
330
1F
100
AcDbEntity
  8
OBJECT1
100
AcDbLine
 10
25.03102112309771
 20
9.890720296743229
 30
0.0
 11
25.03102112309771
 21
9.745849343391229
 31
0.0
  0
LINE
  5
C2A
102
{ACAD_REACTORS
330
871
102
}
330
1F
100
AcDbEntity
  8
OBJECT1
100
AcDbLine
 10
24.8544763960808
 20
9.890720296743229
 30
0.0
 11
25.03102112309771
 21
9.890720296743229
 31
0.0
  0
LINE
  5
C2B
102
{ACAD_REACTORS
330
871
102
}
330
1F
100
AcDbEntity
  8
OBJECT1
100
AcDbLine
 10
24.75931610903349
 20
10.20739233325537
 30
0.0
 11
24.8544763960808
 21
9.890720296743229
 31
0.0
  0
LINE
  5
C2C
330
1F
100
AcDbEntity
  8
OBJECT1
  6
CONTINUOUS
100
AcDbLine
 10
25.60788939111462
 20
11.13675378969488
 30
0.0
 11
25.64677352299902
 21
11.13675378969488
 31
0.0
  0
LINE
  5
C2D
330
1F
100
AcDbEntity
  8
OBJECT1
  6
CONTINUOUS
100
AcDbLine
 10
25.65246874157429
 20
11.14244862860164
 30
0.0
 11
25.65246874157429
 21
11.24814931120683
 31
0.0
  0
ARC
  5
C2E
330
1F
100
AcDbEntity
  8
OBJECT1
  6
CONTINUOUS
100
AcDbCircle
 10
25.64677409250187
 20
11.14244843876735
 30
0.0
 40
0.005694649072459
100
AcDbArc
 50
269.9945349999889
 51
0.0018309999969921
  0
ARC
  5
C2F
330
1F
100
AcDbEntity
  8
OBJECT1
  6
CONTINUOUS
100
AcDbCircle
 10
25.69993016193075
 20
11.24814779253249
 30
0.0
 40
0.0474614203563851
100
AcDbArc
 50
136.3572999999956
 51
179.9982529999971
  0
LINE
  5
C30
330
1F
100
AcDbEntity
  8
OBJECT1
  6
CONTINUOUS
100
AcDbLine
 10
25.32595376042128
 20
11.13675378969488
 30
0.0
 11
25.36483789230568
 21
11.13675378969488
 31
0.0
  0
LINE
  5
C31
330
1F
100
AcDbEntity
  8
OBJECT1
  6
CONTINUOUS
100
AcDbLine
 10
25.3202587316802
 20
11.14244862860164
 30
0.0
 11
25.3202587316802
 21
11.24814931120683
 31
0.0
  0
ARC
  5
C32
330
1F
100
AcDbEntity
  8
OBJECT1
  6
CONTINUOUS
100
AcDbCircle
 10
25.32595338075269
 20
11.14244843876735
 30
0.0
 40
0.005694649072459
100
AcDbArc
 50
179.9981770000012
 51
270.0054629999952
  0
ARC
  5
C33
330
1F
100
AcDbEntity
  8
OBJECT1
  6
CONTINUOUS
100
AcDbCircle
 10
25.27279712148955
 20
11.24814779253249
 30
0.0
 40
0.0474616101906765
100
AcDbArc
 50
0.0017399999995141
 51
43.64254800000548
  0
LINE
  5
C34
330
1F
100
AcDbEntity
  8
OBJECT2
  6
CONTINUOUS
100
AcDbLine
 10
25.3202587316802
 20
11.24814931120683
 30
0.0
 11
25.65246874157429
 21
11.24814931120683
 31
0.0
  0
LINE
  5
C35
330
1F
100
AcDbEntity
  8
OBJECT2
  6
CONTINUOUS
100
AcDbLine
 10
25.36483789230568
 20
11.13675378969488
 30
0.0
 11
25.60788939111462
 21
11.13675378969488
 31
0.0
  0
LINE
  5
C36
330
1F
100
AcDbEntity
  8
OBJECT2
100
AcDbLine
 10
24.75931610903349
 20
10.80910391738474
 30
0.0
 11
25.36483789230568
 21
10.80910391738474
 31
0.0
  0
LINE
  5
C37
330
1F
100
AcDbEntity
  8
OBJECT2
100
AcDbLine
 10
26.04144425586404
 20
10.20739233325537
 30
0.0
 11
24.75931610903349
 21
10.20739233325537
 31
0.0
  0
ARC
  5
C38
330
1F
100
AcDbEntity
  8
OBJECT2
100
AcDbCircle
 10
25.48636364171015
 20
7.089995363101738
 30
0.0
 40
3.201056385678684
100
AcDbArc
 50
76.87199295465752
 51
103.1280070453424
  0
LINE
  5
C39
330
1F
100
AcDbEntity
  8
OBJECT2
100
AcDbLine
 10
25.1634296904409
 20
9.745849343391229
 30
0.0
 11
25.8092975929794
 21
9.745849343391229
 31
0.0
  0
LINE
  5
C3A
330
1F
100
AcDbEntity
  8
OBJECT2
100
AcDbLine
 10
25.94170616032259
 20
9.890720296743229
 30
0.0
 11
25.03102112309771
 21
9.890720296743229
 31
0.0
  0
LINE
  5
C3B
330
1F
100
AcDbEntity
  8
OBJECT2
100
AcDbLine
 10
25.60788939111462
 20
10.80910391738474
 30
0.0
 11
26.04144425586404
 21
10.80910391738474
 31
0.0
  0
LINE
  5
C3C
330
1F
100
AcDbEntity
  8
OBJECT2
100
AcDbLine
 10
27.96463647610992
 20
10.80910391738474
 30
0.0
 11
27.96463647610992
 21
11.41081550151411
 31
0.0
  0
LINE
  5
C3D
330
1F
100
AcDbEntity
  8
OBJECT2
100
AcDbLine
 10
26.68250832927937
 20
10.80910391738474
 30
0.0
 11
26.68250832927937
 21
11.41081550151411
 31
0.0
  0
LINE
  5
C3E
330
1F
100
AcDbEntity
  8
OBJECT2
100
AcDbLine
 10
24.11825203561816
 20
10.80910391738474
 30
0.0
 11
24.11825203561816
 21
11.41081550151411
 31
0.0
  0
TEXT
  5
C3F
330
1F
100
AcDbEntity
  8
TEXT
100
AcDbText
 10
26.09428012216837
 20
11.2199448834223
 30
0.0
 40
0.1898342913680584
  1
12" MIN.
  7
ROMANS
 72
     1
 11
26.73158095747542
 21
11.31486202910633
 31
0.0
100
AcDbText
 73
     2
  0
ARC
  5
C40
330
1F
100
AcDbEntity
  8
OBJECT1
  6
CONTINUOUS
100
AcDbCircle
 10
25.35694534749284
 20
11.57527081292081
 30
0.0
 40
0.4265090551254371
100
AcDbArc
 50
316.3558349999965
 51
0.0000309999979089
  0
ARC
  5
C41
330
1F
100
AcDbEntity
  8
OBJECT1
  6
CONTINUOUS
100
AcDbCircle
 10
25.61578155625881
 20
11.57527081292081
 30
0.0
 40
0.4265086754568544
100
AcDbArc
 50
179.9999770000002
 51
223.6442260000036
  0
LINE
  5
C42
330
1F
100
AcDbEntity
  8
OBJECT2
100
AcDbLine
 10
28.60570054952519
 20
11.41081550151411
 30
0.0
 11
28.60570054952519
 21
12.01252708564347
 31
0.0
  0
LINE
  5
C43
330
1F
100
AcDbEntity
  8
OBJECT2
100
AcDbLine
 10
28.60570054952519
 20
12.01252708564347
 30
0.0
 11
28.86841665338558
 21
12.01252708564347
 31
0.0
  0
LINE
  5
C44
330
1F
100
AcDbEntity
  8
OBJECT2
100
AcDbLine
 10
28.60570054952525
 20
10.20739233325537
 30
0.0
 11
28.60570054952525
 21
10.80910391738474
 31
0.0
  0
LINE
  5
C45
330
1F
100
AcDbEntity
  8
OBJECT2
100
AcDbLine
 10
28.60570054952519
 20
10.80910391738474
 30
0.0
 11
29.37183892133085
 21
10.80910391738475
 31
0.0
  0
LINE
  5
C46
330
1F
100
AcDbEntity
  8
OBJECT2
100
AcDbLine
 10
29.46632161190247
 20
10.20739233325537
 30
0.0
 11
28.60570054952525
 21
10.20739233325537
 31
0.0
  0
LINE
  5
C47
330
1F
100
AcDbEntity
  8
OBJECT2
100
AcDbLine
 10
29.24676462294046
 20
10.80910391738474
 30
0.0
 11
29.24676462294046
 21
11.41081550151411
 31
0.0
  0
LINE
  5
C48
330
1F
100
AcDbEntity
  8
OBJECT2
100
AcDbLine
 10
27.96463647610992
 20
12.61423866977285
 30
0.0
 11
28.4057461611783
 21
12.61423866977285
 31
0.0
  0
LINE
  5
C49
330
1F
100
AcDbEntity
  8
OBJECT2
100
AcDbLine
 10
26.04144425586404
 20
13.21595025390221
 30
0.0
 11
27.32357240269458
 21
13.21595025390221
 31
0.0
  0
LINE
  5
C4A
330
1F
100
AcDbEntity
  8
OBJECT2
100
AcDbLine
 10
26.68250832927931
 20
12.61423866977285
 30
0.0
 11
27.96463647610992
 21
12.61423866977285
 31
0.0
  0
LINE
  5
C4B
330
1F
100
AcDbEntity
  8
OBJECT1
100
AcDbLine
 10
26.5362848554339
 20
12.73931592457363
 30
0.0
 11
26.42866909349146
 21
12.73930438052577
 31
0.0
  0
LINE
  5
C4C
330
1F
100
AcDbEntity
  8
OBJECT1
100
AcDbLine
 10
26.48086629877788
 20
13.11273386905456
 30
0.0
 11
26.61565325933734
 21
13.11273360058833
 31
0.0
  0
LINE
  5
C4D
330
1F
100
AcDbEntity
  8
OBJECT1
100
AcDbLine
 10
26.61565314739053
 20
13.0892474582508
 30
0.0
 11
26.48086645529729
 21
13.08923564573671
 31
0.0
  0
LINE
  5
C4E
330
1F
100
AcDbEntity
  8
OBJECT1
100
AcDbLine
 10
26.45334812010038
 20
13.00032094058079
 30
0.0
 11
26.5362965337149
 21
13.00032080634767
 31
0.0
  0
LINE
  5
C4F
330
1F
100
AcDbEntity
  8
OBJECT2
100
AcDbLine
 10
26.42866909349146
 20
12.73930438052577
 30
0.0
 11
26.42866869079208
 21
12.98982968303298
 31
0.0
  0
LINE
  5
C50
330
1F
100
AcDbEntity
  8
OBJECT2
100
AcDbLine
 10
26.2995832817807
 20
12.98846788808406
 30
0.0
 11
26.2995834160138
 21
12.74331889028794
 31
0.0
  0
LINE
  5
C51
330
1F
100
AcDbEntity
  8
OBJECT2
100
AcDbLine
 10
26.05682767397875
 20
12.93434726363397
 30
0.0
 11
26.05682821091123
 21
12.80526708971405
 31
0.0
  0
LINE
  5
C52
330
1F
100
AcDbEntity
  8
OBJECT2
100
AcDbLine
 10
26.09060341030667
 20
12.77499081068713
 30
0.0
 11
26.09060314184046
 21
12.96463965063466
 31
0.0
  0
LINE
  5
C53
330
1F
100
AcDbEntity
  8
OBJECT2
100
AcDbLine
 10
26.12271044055542
 20
12.96464570447761
 30
0.0
 11
26.12271031868656
 21
12.77499068980665
 31
0.0
  0
LINE
  5
C54
330
1F
100
AcDbEntity
  8
OBJECT2
100
AcDbLine
 10
26.10666130008736
 20
12.93502487334442
 30
0.0
 11
26.10666126668157
 21
12.80458317294175
 31
0.0
  0
LINE
  5
C55
330
1F
100
AcDbEntity
  8
OBJECT2
100
AcDbLine
 10
26.15480870631992
 20
12.96464567144638
 30
0.0
 11
26.15480843785364
 21
12.77499065677557
 31
0.0
  0
LINE
  5
C56
330
1F
100
AcDbEntity
  8
OBJECT2
100
AcDbLine
 10
26.13875954295588
 20
12.93502485271868
 30
0.0
 11
26.13875940872277
 21
12.80458315231607
 31
0.0
  0
LINE
  5
C5B
330
1F
100
AcDbEntity
  8
OBJECT2
100
AcDbLine
 10
25.96191143855457
 20
12.80527272750488
 30
0.0
 11
25.96191143855457
 21
12.9343585392156
 31
0.0
  0
LINE
  5
C5D
330
1F
100
AcDbEntity
  8
OBJECT1
100
AcDbLine
 10
26.05422167228949
 20
12.73089227937042
 30
0.0
 11
26.07763810222135
 21
12.75432615960719
 31
0.0
  0
ARC
  5
C5E
330
1F
100
AcDbEntity
  8
OBJECT1
100
AcDbCircle
 10
26.0644545310914
 20
12.63942986198814
 30
0.0
 40
0.0118686297306224
100
AcDbArc
 50
315.0157319999914
 51
44.97902699998848
  0
LINE
  5
C5F
330
1F
100
AcDbEntity
  8
OBJECT2
100
AcDbLine
 10
26.05036340987286
 20
12.73917083825505
 30
0.0
 11
26.05036314140659
 21
12.79500134379898
 31
0.0
  0
LINE
  5
C60
330
1F
100
AcDbEntity
  8
OBJECT1
100
AcDbLine
 10
26.04582149820287
 20
12.72743966942649
 30
0.0
 11
26.02154651326927
 21
12.72743430010191
 31
0.0
  0
LINE
  5
C61
330
1F
100
AcDbEntity
  8
OBJECT2
100
AcDbLine
 10
26.04543853112658
 20
12.79387740992938
 30
0.0
 11
25.97330017870743
 21
12.79387163790543
 31
0.0
  0
ARC
  5
C64
330
1F
100
AcDbEntity
  8
OBJECT2
100
AcDbCircle
 10
25.9733035345353
 20
12.80526333118683
 30
0.0
 40
0.0113921456592886
100
AcDbArc
 50
179.9530030000025
 51
269.9826199999904
  0
ARC
  5
C65
330
1F
100
AcDbEntity
  8
OBJECT1
100
AcDbCircle
 10
26.04584646556219
 20
12.73932386400584
 30
0.0
 40
0.0118841961425146
100
AcDbArc
 50
269.8796540000011
 51
314.8079829999976
  0
ARC
  5
C66
330
1F
100
AcDbEntity
  8
OBJECT2
100
AcDbCircle
 10
26.0454350410656
 20
12.8052703113088
 30
0.0
 40
0.011392904996454
100
AcDbArc
 50
270.0173800000094
 51
359.983902000001
  0
LINE
  5
C67
330
1F
100
AcDbEntity
  8
OBJECT1
100
AcDbLine
 10
26.05858921514334
 20
12.65437524274885
 30
0.0
 11
26.05858961784271
 21
12.66174396958185
 31
0.0
  0
LINE
  5
C68
330
1F
100
AcDbEntity
  8
OBJECT1
100
AcDbLine
 10
26.06244734332686
 20
12.65822155841827
 30
0.0
 11
26.07285000701898
 21
12.64781916319241
 31
0.0
  0
ARC
  5
C69
330
1F
100
AcDbEntity
  8
OBJECT1
100
AcDbCircle
 10
25.99496271876224
 20
12.53637171699007
 30
0.0
 40
0.0118661618848346
100
AcDbArc
 50
135.0087279999979
 51
224.9930109999936
  0
LINE
  5
C6A
330
1F
100
AcDbEntity
  8
OBJECT1
100
AcDbLine
 10
26.0728496043196
 20
12.63103962115206
 30
0.0
 11
25.98657100136191
 21
12.54476101819434
 31
0.0
  0
LINE
  5
C6B
330
1F
100
AcDbEntity
  8
OBJECT1
100
AcDbLine
 10
26.05858961784271
 20
12.66174396958185
 30
0.0
 11
26.01315842016302
 21
12.70718080505239
 31
0.0
  0
LINE
  5
C6C
330
1F
100
AcDbEntity
  8
OBJECT2
100
AcDbLine
 10
25.71885983317603
 20
12.69343909263145
 30
0.0
 11
25.71885983317603
 21
12.71716882265308
 31
0.0
  0
LINE
  5
C6D
330
1F
100
AcDbEntity
  8
OBJECT2
100
AcDbLine
 10
25.71885969894293
 20
12.63646827677789
 30
0.0
 11
25.71885983317603
 21
12.61273868098937
 31
0.0
  0
LINE
  5
C6E
330
1F
100
AcDbEntity
  8
OBJECT2
100
AcDbLine
 10
25.77109248854597
 20
12.66494771133107
 30
0.0
 11
25.71885983317603
 21
12.61273868098937
 31
0.0
  0
LINE
  5
C6F
330
1F
100
AcDbEntity
  8
OBJECT2
100
AcDbLine
 10
25.77109248854597
 20
12.66494771133107
 30
0.0
 11
25.71885983317603
 21
12.71716882265308
 31
0.0
  0
ARC
  5
C70
330
1F
100
AcDbEntity
  8
OBJECT1
100
AcDbCircle
 10
26.02155590958723
 20
12.71556701889503
 30
0.0
 40
0.0118673008905828
100
AcDbArc
 50
90.04512000000705
 51
224.961548000005
  0
LINE
  5
C71
330
1F
100
AcDbEntity
  8
OBJECT1
100
AcDbLine
 10
26.16778582691934
 20
12.73930451475887
 30
0.0
 11
26.15480884055302
 21
12.77499669726574
 31
0.0
  0
ARC
  5
C72
330
1F
100
AcDbEntity
  8
OBJECT1
100
AcDbCircle
 10
26.08605129692002
 20
12.74588235975834
 30
0.0
 40
0.0119198849892918
100
AcDbArc
 50
90.11753100000746
 51
134.8955730000032
  0
LINE
  5
C73
330
1F
100
AcDbEntity
  8
OBJECT1
100
AcDbLine
 10
26.23152373678566
 20
12.75116293658019
 30
0.0
 11
26.29958287908132
 21
12.75116320504643
 31
0.0
  0
LINE
  5
C74
330
1F
100
AcDbEntity
  8
OBJECT1
100
AcDbLine
 10
26.23152373678566
 20
12.75116293658019
 30
0.0
 11
26.22721351147177
 21
12.73931605880675
 31
0.0
  0
LINE
  5
C75
330
1F
100
AcDbEntity
  8
OBJECT1
100
AcDbLine
 10
26.16778582691934
 20
12.73930451475887
 30
0.0
 11
26.22721351147177
 21
12.73931605880675
 31
0.0
  0
LINE
  5
C76
330
1F
100
AcDbEntity
  8
OBJECT1
100
AcDbLine
 10
26.22721351147177
 20
12.73931605880675
 30
0.0
 11
26.16778582691934
 21
12.73930451475887
 31
0.0
  0
LINE
  5
C77
330
1F
100
AcDbEntity
  8
OBJECT1
100
AcDbLine
 10
26.09060338850261
 20
12.77499086825117
 30
0.0
 11
26.15480843785364
 21
12.77499065677557
 31
0.0
  0
LINE
  5
C78
330
1F
100
AcDbEntity
  8
OBJECT1
100
AcDbLine
 10
26.09060300760729
 20
12.75780266304555
 30
0.0
 11
26.09060341030667
 21
12.77499081068713
 31
0.0
  0
LINE
  5
C79
330
1F
100
AcDbEntity
  8
OBJECT1
100
AcDbLine
 10
26.09060300760729
 20
12.75780266304555
 30
0.0
 11
26.08602686649312
 21
12.7578022603462
 31
0.0
  0
LINE
  5
C7A
330
1F
100
AcDbEntity
  8
OBJECT2
100
AcDbLine
 10
26.16663867072089
 20
12.8045887901069
 30
0.0
 11
26.15480884055302
 21
12.77499669726574
 31
0.0
  0
LINE
  5
C7B
330
1F
100
AcDbEntity
  8
OBJECT2
100
AcDbLine
 10
26.15480897478613
 20
12.84787628494441
 30
0.0
 11
26.16663867072089
 21
12.8045887901069
 31
0.0
  0
LINE
  5
C7C
330
1F
100
AcDbEntity
  8
OBJECT2
100
AcDbLine
 10
26.22836066767022
 20
12.80459442789771
 30
0.0
 11
26.24019022937188
 21
12.77498515321786
 31
0.0
  0
LINE
  5
C7D
330
1F
100
AcDbEntity
  8
OBJECT2
100
AcDbLine
 10
26.22836066767022
 20
12.80459442789771
 30
0.0
 11
26.16663867072089
 21
12.8045887901069
 31
0.0
  0
LINE
  5
C7E
330
1F
100
AcDbEntity
  8
OBJECT2
100
AcDbLine
 10
26.24019022937188
 20
12.84787051292048
 30
0.0
 11
26.22836066767022
 21
12.80459442789771
 31
0.0
  0
LINE
  5
C7F
330
1F
100
AcDbEntity
  8
OBJECT1
100
AcDbLine
 10
26.42821739906035
 20
12.74329607065844
 30
0.0
 11
26.2995834160138
 21
12.74331889028794
 31
0.0
  0
LINE
  5
C80
330
1F
100
AcDbEntity
  8
OBJECT1
100
AcDbLine
 10
26.05422140382322
 20
13.00869818048317
 30
0.0
 11
26.07763823645445
 21
12.98528725410902
 31
0.0
  0
LINE
  5
C81
330
1F
100
AcDbEntity
  8
OBJECT2
100
AcDbLine
 10
26.0568283451444
 20
12.86980382084614
 30
0.0
 11
26.0568283451444
 21
12.86980382084614
 31
0.0
  0
LINE
  5
C82
330
1F
100
AcDbEntity
  8
OBJECT2
100
AcDbLine
 10
26.04543906805906
 20
12.94574231274322
 30
0.0
 11
25.97330098410612
 21
12.94574808476715
 31
0.0
  0
ARC
  5
C96
330
1F
100
AcDbEntity
  8
OBJECT2
100
AcDbCircle
 10
25.9732936012848
 20
12.9343657878038
 30
0.0
 40
0.0113822742761374
100
AcDbArc
 50
89.96262400000231
 51
180.0367429999996
  0
LINE
  5
C99
330
1F
100
AcDbEntity
  8
OBJECT2
100
AcDbLine
 10
26.05036287294038
 20
13.0004483474851
 30
0.0
 11
26.0503632756397
 21
12.94461797617427
 31
0.0
  0
ARC
  5
C9A
330
1F
100
AcDbEntity
  8
OBJECT2
100
AcDbCircle
 10
26.04541665112886
 20
12.93433155835954
 30
0.0
 40
0.0114107494198426
100
AcDbArc
 50
0.0790559999979922
 51
89.88687100001634
  0
ARC
  5
C9B
330
1F
100
AcDbEntity
  8
OBJECT1
100
AcDbCircle
 10
26.04581800814189
 20
13.00029693253167
 30
0.0
 40
0.011882867302475
100
AcDbArc
 50
44.99301099999363
 51
89.98518799999619
  0
ARC
  5
C9C
330
1F
100
AcDbEntity
  8
OBJECT1
100
AcDbCircle
 10
25.67493721435619
 20
13.16056865397129
 30
0.0
 40
0.0118650228790864
100
AcDbArc
 50
315.0017549999901
 51
44.99825299999881
  0
LINE
  5
C9D
330
1F
100
AcDbEntity
  8
OBJECT1
100
AcDbLine
 10
26.04582122973666
 20
13.01217978477987
 30
0.0
 11
25.6879816528627
 21
13.01218018747921
 31
0.0
  0
LINE
  5
C9E
330
1F
100
AcDbEntity
  8
OBJECT2
100
AcDbLine
 10
26.41775459893288
 20
13.07726148267932
 30
0.0
 11
26.38216067506601
 21
13.08099786142778
 31
0.0
  0
LINE
  5
C9F
330
1F
100
AcDbEntity
  8
OBJECT2
100
AcDbLine
 10
26.38216067506601
 20
13.10895620302957
 30
0.0
 11
26.41062856557128
 21
13.11258318178952
 31
0.0
  0
LINE
  5
CA0
330
1F
100
AcDbEntity
  8
OBJECT2
100
AcDbLine
 10
26.41062829710507
 20
13.15277740873124
 30
0.0
 11
26.38216067506601
 21
13.15640358209252
 31
0.0
  0
LINE
  5
CA1
330
1F
100
AcDbEntity
  8
OBJECT2
100
AcDbLine
 10
26.41062856557128
 20
13.11258318178952
 30
0.0
 11
26.42322365872627
 21
13.10895620302957
 31
0.0
  0
LINE
  5
CA2
330
1F
100
AcDbEntity
  8
OBJECT2
100
AcDbLine
 10
26.42325829086989
 20
13.15640331362628
 30
0.0
 11
26.41062829710507
 21
13.15277740873124
 31
0.0
  0
LINE
  5
CA3
330
1F
100
AcDbEntity
  8
OBJECT1
100
AcDbLine
 10
26.41062883403755
 20
13.0809863173799
 30
0.0
 11
26.4336510213115
 21
13.0809861831468
 31
0.0
  0
LINE
  5
CA4
330
1F
100
AcDbEntity
  8
OBJECT1
100
AcDbLine
 10
26.47707789469055
 20
13.09304796817306
 30
0.0
 11
26.41062848831301
 21
13.09304594773086
 31
0.0
  0
LINE
  5
CA5
330
1F
100
AcDbEntity
  8
OBJECT2
100
AcDbLine
 10
26.41062856557134
 20
13.13268029526039
 30
0.0
 11
26.41062829710507
 21
13.15277740873124
 31
0.0
  0
LINE
  5
CA6
330
1F
100
AcDbEntity
  8
OBJECT2
100
AcDbLine
 10
26.41062856557134
 20
13.13268029526039
 30
0.0
 11
26.41062856557128
 21
13.11258318178952
 31
0.0
  0
LINE
  5
CA7
330
1F
100
AcDbEntity
  8
OBJECT1
100
AcDbLine
 10
26.41062848831301
 20
13.09304594773086
 30
0.0
 11
26.41062883403755
 21
13.0809863173799
 31
0.0
  0
LINE
  5
CA8
330
1F
100
AcDbEntity
  8
OBJECT1
100
AcDbLine
 10
26.43530826334585
 20
13.1531305760561
 30
0.0
 11
26.43530772641343
 21
13.11224719630337
 31
0.0
  0
LINE
  5
CA9
330
1F
100
AcDbEntity
  8
OBJECT1
100
AcDbLine
 10
26.42322365872627
 20
13.10895620302957
 30
0.0
 11
26.43530772641343
 21
13.11224719630337
 31
0.0
  0
LINE
  5
CAA
330
1F
100
AcDbEntity
  8
OBJECT1
100
AcDbLine
 10
26.43530826334585
 20
13.1531305760561
 30
0.0
 11
26.42325829086989
 21
13.15640331362628
 31
0.0
  0
LINE
  5
CAB
330
1F
100
AcDbEntity
  8
OBJECT2
100
AcDbLine
 10
26.41775459893288
 20
13.07726148267932
 30
0.0
 11
26.4336510213115
 21
13.0809861831468
 31
0.0
  0
LINE
  5
CAC
330
1F
100
AcDbEntity
  8
OBJECT1
100
AcDbLine
 10
26.44954811485558
 20
13.07725007286458
 30
0.0
 11
26.4336510213115
 21
13.0809861831468
 31
0.0
  0
LINE
  5
CAD
330
1F
100
AcDbEntity
  8
OBJECT1
100
AcDbLine
 10
26.42960751719654
 20
13.06677532598988
 30
0.0
 11
26.42961932971064
 21
13.05728638710975
 31
0.0
  0
LINE
  5
CAE
330
1F
100
AcDbEntity
  8
OBJECT1
100
AcDbLine
 10
26.44954811485558
 20
13.06678150071316
 30
0.0
 11
26.42960751719654
 21
13.06677532598988
 31
0.0
  0
LINE
  5
CAF
330
1F
100
AcDbEntity
  8
OBJECT1
100
AcDbLine
 10
26.44954811485558
 20
13.07725007286458
 30
0.0
 11
26.44954811485558
 21
13.06678150071316
 31
0.0
  0
LINE
  5
CB0
330
1F
100
AcDbEntity
  8
OBJECT2
100
AcDbLine
 10
26.41775459893288
 20
13.07726148267932
 30
0.0
 11
26.41775459893288
 21
13.06677546022299
 31
0.0
  0
ARC
  5
CB1
330
1F
100
AcDbEntity
  8
OBJECT1
100
AcDbCircle
 10
26.48085663399365
 20
13.10895440147628
 30
0.0
 40
0.003779600741138
100
AcDbArc
 50
89.85251200001178
 51
180.1436159999986
  0
LINE
  5
CB2
330
1F
100
AcDbEntity
  8
OBJECT1
100
AcDbLine
 10
26.45334852279976
 20
13.05727457459565
 30
0.0
 11
26.45334812010038
 21
13.00032094058079
 31
0.0
  0
ARC
  5
CB3
330
1F
100
AcDbEntity
  8
OBJECT1
100
AcDbCircle
 10
26.48089451001827
 20
13.09305283282024
 30
0.0
 40
0.0038166184279548
100
AcDbArc
 50
180.0730289999989
 51
269.5811160000003
  0
LINE
  5
CB4
330
1F
100
AcDbEntity
  8
OBJECT2
100
AcDbLine
 10
26.47707798435521
 20
13.10894492744793
 30
0.0
 11
26.47707744742273
 21
13.09304796813691
 31
0.0
  0
LINE
  5
CB5
330
1F
100
AcDbEntity
  8
OBJECT1
100
AcDbLine
 10
26.42322365872627
 20
13.10895620302957
 30
0.0
 11
26.47707798435521
 21
13.10894492744793
 31
0.0
  0
LINE
  5
CB6
330
1F
100
AcDbEntity
  8
OBJECT1
100
AcDbLine
 10
26.42961932971064
 20
13.05728638710975
 30
0.0
 11
26.45334852279976
 21
13.05727457459565
 31
0.0
  0
LINE
  5
CB7
330
1F
100
AcDbEntity
  8
OBJECT1
100
AcDbLine
 10
26.23152333408634
 20
12.98846171336078
 30
0.0
 11
26.29957133503349
 21
12.98846211606013
 31
0.0
  0
LINE
  5
CB8
330
1F
100
AcDbEntity
  8
OBJECT1
100
AcDbLine
 10
26.16083358019076
 20
13.11274508989273
 30
0.0
 11
26.28344291258209
 21
13.11275636547437
 31
0.0
  0
LINE
  5
CB9
330
1F
100
AcDbEntity
  8
OBJECT1
100
AcDbLine
 10
26.16024306759987
 20
13.08926500433746
 30
0.0
 11
26.28344275722975
 21
13.08925936654664
 31
0.0
  0
LINE
  5
CBA
330
1F
100
AcDbEntity
  8
OBJECT1
100
AcDbLine
 10
26.16778569268624
 20
13.00031530278996
 30
0.0
 11
26.15480870631992
 21
12.96464567144638
 31
0.0
  0
LINE
  5
CBB
330
1F
100
AcDbEntity
  8
OBJECT1
100
AcDbLine
 10
26.23152333408634
 20
12.98846171336078
 30
0.0
 11
26.2272132430055
 21
13.00032644413848
 31
0.0
  0
LINE
  5
CBC
330
1F
100
AcDbEntity
  8
OBJECT1
100
AcDbLine
 10
26.09060313097536
 20
12.96463967900968
 30
0.0
 11
26.15480870631992
 21
12.96464567144638
 31
0.0
  0
LINE
  5
CBD
330
1F
100
AcDbEntity
  8
OBJECT1
100
AcDbLine
 10
26.09060260490798
 20
12.98181155606936
 30
0.0
 11
26.0906031418404
 21
12.96464582535792
 31
0.0
  0
ARC
  5
CBE
330
1F
100
AcDbEntity
  8
OBJECT1
100
AcDbCircle
 10
26.08601894673937
 20
12.99363225838543
 30
0.0
 40
0.0118268661865214
100
AcDbArc
 50
224.8771970000085
 51
270.0378270000047
  0
LINE
  5
CBF
330
1F
100
AcDbEntity
  8
OBJECT1
100
AcDbLine
 10
26.09060260490798
 20
12.98181155606936
 30
0.0
 11
26.08602686649312
 21
12.98180538134609
 31
0.0
  0
LINE
  5
CC0
330
1F
100
AcDbEntity
  8
OBJECT2
100
AcDbLine
 10
26.1666389391871
 20
12.93503008781014
 30
0.0
 11
26.15480870631992
 21
12.96464567144638
 31
0.0
  0
LINE
  5
CC1
330
1F
100
AcDbEntity
  8
OBJECT2
100
AcDbLine
 10
26.15480910901923
 20
12.89175453971984
 30
0.0
 11
26.1666389391871
 21
12.93503008781014
 31
0.0
  0
LINE
  5
CC2
330
1F
100
AcDbEntity
  8
OBJECT1
100
AcDbLine
 10
26.15480870631992
 20
12.96464567144638
 30
0.0
 11
26.15480870631992
 21
12.96464567144638
 31
0.0
  0
LINE
  5
CC3
330
1F
100
AcDbEntity
  8
OBJECT2
100
AcDbLine
 10
26.22836026497091
 20
12.93504203455737
 30
0.0
 11
26.2401788195571
 21
12.96465157770342
 31
0.0
  0
LINE
  5
CC4
330
1F
100
AcDbEntity
  8
OBJECT2
100
AcDbLine
 10
26.2401906320712
 20
12.89174823076346
 30
0.0
 11
26.22836026497091
 21
12.93504203455737
 31
0.0
  0
LINE
  5
CC5
330
1F
100
AcDbEntity
  8
OBJECT2
100
AcDbLine
 10
26.22836026497091
 20
12.93504203455737
 30
0.0
 11
26.1666389391871
 21
12.93503008781014
 31
0.0
  0
ARC
  5
CC6
330
1F
100
AcDbEntity
  8
OBJECT1
100
AcDbCircle
 10
26.16023087350562
 20
13.10895622599641
 30
0.0
 40
0.0037889026214151
100
AcDbArc
 50
89.81996500000091
 51
180.1761779999991
  0
ARC
  5
CC7
330
1F
100
AcDbEntity
  8
OBJECT1
100
AcDbCircle
 10
26.16021112011854
 20
13.09303373326657
 30
0.0
 40
0.0037687801865301
100
AcDbArc
 50
179.5134279999994
 51
270.4846039999839
  0
LINE
  5
CC8
330
1F
100
AcDbEntity
  8
OBJECT1
100
AcDbLine
 10
26.1564419887961
 20
13.10894457557051
 30
0.0
 11
26.15644247583128
 21
13.09306573843147
 31
0.0
  0
LINE
  5
CC9
330
1F
100
AcDbEntity
  8
OBJECT1
100
AcDbLine
 10
26.16778569268624
 20
13.00031530278996
 30
0.0
 11
26.2272132430055
 21
13.00032644413848
 31
0.0
  0
LINE
  5
CCA
330
1F
100
AcDbEntity
  8
OBJECT1
100
AcDbLine
 10
26.29957133503349
 20
12.98846211606013
 30
0.0
 11
26.29958287908132
 21
13.00032080634767
 31
0.0
  0
LINE
  5
CCB
330
1F
100
AcDbEntity
  8
OBJECT1
100
AcDbLine
 10
26.34109795987201
 20
13.10895647149581
 30
0.0
 11
26.28724350000997
 21
13.10895633726269
 31
0.0
  0
LINE
  5
CCC
330
1F
100
AcDbEntity
  8
OBJECT1
100
AcDbLine
 10
26.31097296156542
 20
13.0195718484964
 30
0.0
 11
26.28617728637968
 21
13.0367374449747
 31
0.0
  0
LINE
  5
CCD
330
1F
100
AcDbEntity
  8
OBJECT1
100
AcDbLine
 10
26.2883559518246
 20
13.05728052183604
 30
0.0
 11
26.29258504169477
 21
13.0572791729959
 31
0.0
  0
LINE
  5
CCE
330
1F
100
AcDbEntity
  8
OBJECT1
100
AcDbLine
 10
26.29259631392598
 20
13.09304235887733
 30
0.0
 11
26.28724323154376
 21
13.09304219611298
 31
0.0
  0
LINE
  5
CCF
330
1F
100
AcDbEntity
  8
OBJECT1
100
AcDbLine
 10
26.28454380360658
 20
13.03985393519936
 30
0.0
 11
26.2845550791882
 21
13.05348584493245
 31
0.0
  0
LINE
  5
CD0
330
1F
100
AcDbEntity
  8
OBJECT2
100
AcDbLine
 10
26.28724350000997
 20
13.10895633726269
 30
0.0
 11
26.28724323154376
 21
13.09304219611298
 31
0.0
  0
ARC
  5
CD1
330
1F
100
AcDbEntity
  8
OBJECT1
100
AcDbCircle
 10
26.28344586571065
 20
13.10895864219249
 30
0.0
 40
0.003797634998818
100
AcDbArc
 50
359.9652249999995
 51
90.04248799999928
  0
ARC
  5
CD2
330
1F
100
AcDbEntity
  8
OBJECT1
100
AcDbCircle
 10
26.28848193472647
 20
13.03993205887212
 30
0.0
 40
0.0039388717115958
100
AcDbArc
 50
181.1378170000003
 51
234.1926269999939
  0
ARC
  5
CD3
330
1F
100
AcDbEntity
  8
OBJECT1
100
AcDbCircle
 10
26.28834340615207
 20
13.05349201965572
 30
0.0
 40
0.0037885229528323
100
AcDbArc
 50
89.81026499999705
 51
180.0929260000021
  0
ARC
  5
CD4
330
1F
100
AcDbEntity
  8
OBJECT1
100
AcDbCircle
 10
26.28344638152389
 20
13.09305615019672
 30
0.0
 40
0.0037968756616525
100
AcDbArc
 50
269.9459080000016
 51
359.7894290000001
  0
LINE
  5
CD5
330
1F
100
AcDbEntity
  8
OBJECT2
100
AcDbLine
 10
26.34109795987201
 20
13.10895647149581
 30
0.0
 11
26.35368056934731
 21
13.11258304755642
 31
0.0
  0
LINE
  5
CD6
330
1F
100
AcDbEntity
  8
OBJECT1
100
AcDbLine
 10
26.32900154273826
 20
13.11225256562795
 30
0.0
 11
26.32900127427205
 21
13.15313594538068
 31
0.0
  0
LINE
  5
CD7
330
1F
100
AcDbEntity
  8
OBJECT1
100
AcDbLine
 10
26.34109795987201
 20
13.10895647149581
 30
0.0
 11
26.32900154273826
 21
13.11225256562795
 31
0.0
  0
LINE
  5
CD8
330
1F
100
AcDbEntity
  8
OBJECT2
100
AcDbLine
 10
26.35368043511414
 20
13.13270902114694
 30
0.0
 11
26.35368083781352
 21
13.15277700603191
 31
0.0
  0
LINE
  5
CD9
330
1F
100
AcDbEntity
  8
OBJECT2
100
AcDbLine
 10
26.34105151521435
 20
13.15640358209252
 30
0.0
 11
26.35368083781352
 21
13.15277700603191
 31
0.0
  0
LINE
  5
CDA
330
1F
100
AcDbEntity
  8
OBJECT1
100
AcDbLine
 10
26.32900127427205
 20
13.15313594538068
 30
0.0
 11
26.34105151521435
 21
13.15640358209252
 31
0.0
  0
LINE
  5
CDB
330
1F
100
AcDbEntity
  8
OBJECT2
100
AcDbLine
 10
26.35368043511414
 20
13.13270902114694
 30
0.0
 11
26.35368056934731
 21
13.11258304755642
 31
0.0
  0
LINE
  5
CDC
330
1F
100
AcDbEntity
  8
OBJECT1
100
AcDbLine
 10
26.35367619182599
 20
13.09304421605513
 30
0.0
 11
26.35366902529942
 21
13.0809979956609
 31
0.0
  0
LINE
  5
CDD
330
1F
100
AcDbEntity
  8
OBJECT1
100
AcDbLine
 10
26.305990631046
 20
13.09304276614121
 30
0.0
 11
26.30599063104607
 21
13.05727484306187
 31
0.0
  0
LINE
  5
CDE
330
1F
100
AcDbEntity
  8
OBJECT1
100
AcDbLine
 10
26.29259644815909
 20
13.0930424645792
 30
0.0
 11
26.29258503834436
 21
13.0572686683386
 31
0.0
  0
LINE
  5
CDF
330
1F
100
AcDbEntity
  8
OBJECT1
100
AcDbLine
 10
26.31476128852923
 20
13.07723812611735
 30
0.0
 11
26.33065811360716
 21
13.080998129894
 31
0.0
  0
LINE
  5
CE0
330
1F
100
AcDbEntity
  8
OBJECT1
100
AcDbLine
 10
26.30599063104607
 20
13.05727484306187
 30
0.0
 11
26.33469007367422
 21
13.05728061508582
 31
0.0
  0
LINE
  5
CE1
330
1F
100
AcDbEntity
  8
OBJECT1
100
AcDbLine
 10
26.3147616912286
 20
13.06678740697019
 30
0.0
 11
26.3346903421405
 21
13.06677546022299
 31
0.0
  0
LINE
  5
CE2
330
1F
100
AcDbEntity
  8
OBJECT1
100
AcDbLine
 10
26.35368056934731
 20
13.08099826412712
 30
0.0
 11
26.33065811360716
 21
13.080998129894
 31
0.0
  0
LINE
  5
CE3
330
1F
100
AcDbEntity
  8
OBJECT2
100
AcDbLine
 10
26.34655493868502
 20
13.07726148267932
 30
0.0
 11
26.33065811360716
 21
13.080998129894
 31
0.0
  0
LINE
  5
CE4
330
1F
100
AcDbEntity
  8
OBJECT1
100
AcDbLine
 10
26.3346903421405
 20
13.06677546022299
 30
0.0
 11
26.33469007367422
 21
13.05728061508582
 31
0.0
  0
LINE
  5
CE5
330
1F
100
AcDbEntity
  8
OBJECT2
100
AcDbLine
 10
26.34655493868502
 20
13.07726148267932
 30
0.0
 11
26.34655493868502
 21
13.06677572868923
 31
0.0
  0
ARC
  5
CE6
330
1F
100
AcDbEntity
  8
OBJECT2
100
AcDbCircle
 10
26.29638638592034
 20
13.03828448162196
 30
0.0
 40
0.0037902314614547
100
AcDbArc
 50
179.827759000002
 51
269.8083949999804
  0
LINE
  5
CE7
330
1F
100
AcDbEntity
  8
OBJECT2
100
AcDbLine
 10
26.31097296156542
 20
13.01958929880131
 30
0.0
 11
26.31097255886604
 21
13.04421691412736
 31
0.0
  0
ARC
  5
CE8
330
1F
100
AcDbEntity
  8
OBJECT2
100
AcDbCircle
 10
26.30221290849823
 20
13.03827884383113
 30
0.0
 40
0.0037777023982244
100
AcDbArc
 50
269.4796449999864
 51
0.3456419999985644
  0
LINE
  5
CE9
330
1F
100
AcDbEntity
  8
OBJECT2
100
AcDbLine
 10
26.30217867905399
 20
13.03450138974958
 30
0.0
 11
26.29637363377444
 21
13.03449494656006
 31
0.0
  0
LINE
  5
CEA
330
1F
100
AcDbEntity
  8
OBJECT2
100
AcDbLine
 10
26.30599009411352
 20
13.03830152922752
 30
0.0
 11
26.30599063104607
 21
13.05727484306187
 31
0.0
  0
LINE
  5
CEB
330
1F
100
AcDbEntity
  8
OBJECT2
100
AcDbLine
 10
26.29258504169477
 20
13.0572791729959
 30
0.0
 11
26.29259617158512
 21
13.0382958756946
 31
0.0
  0
LINE
  5
CEC
330
1F
100
AcDbEntity
  8
OBJECT1
100
AcDbLine
 10
26.31476128852923
 20
13.07723812611735
 30
0.0
 11
26.3147616912286
 21
13.06678740697019
 31
0.0
  0
LINE
  5
CED
330
1F
100
AcDbEntity
  8
OBJECT1
100
AcDbLine
 10
26.29958287908132
 20
13.00032080634767
 30
0.0
 11
26.31097255886604
 21
13.00032107481389
 31
0.0
  0
LINE
  5
CEE
330
1F
100
AcDbEntity
  8
OBJECT2
100
AcDbLine
 10
26.31097255886604
 20
13.00032107481389
 30
0.0
 11
26.31097255886604
 21
13.00032107481389
 31
0.0
  0
LINE
  5
CEF
330
1F
100
AcDbEntity
  8
OBJECT2
100
AcDbLine
 10
26.31097255886604
 20
13.00032107481389
 30
0.0
 11
26.31097255886604
 21
13.00032107481389
 31
0.0
  0
LINE
  5
CF0
330
1F
100
AcDbEntity
  8
OBJECT1
100
AcDbLine
 10
26.31097255886604
 20
13.00032107481389
 30
0.0
 11
26.31097296156542
 21
13.0195718484964
 31
0.0
  0
LINE
  5
CF1
330
1F
100
AcDbEntity
  8
OBJECT1
100
AcDbLine
 10
26.35367619182599
 20
13.09304421605513
 30
0.0
 11
26.305990631046
 21
13.09304276614121
 31
0.0
  0
ARC
  5
CF2
330
1F
100
AcDbEntity
  8
OBJECT2
100
AcDbCircle
 10
26.38216121199849
 20
13.20509154360178
 30
0.0
 40
0.2167917099137796
100
AcDbArc
 50
250.8299260000005
 51
289.1696010000059
  0
LINE
  5
CF3
330
1F
100
AcDbEntity
  8
OBJECT2
100
AcDbLine
 10
26.42322365872627
 20
13.10895620302957
 30
0.0
 11
26.34109795987201
 21
13.10895647149581
 31
0.0
  0
LINE
  5
CF4
330
1F
100
AcDbEntity
  8
OBJECT1
100
AcDbLine
 10
26.34106305926218
 20
13.15641512614038
 30
0.0
 11
26.42325829086989
 21
13.15640331362628
 31
0.0
  0
LINE
  5
CF5
330
1F
100
AcDbEntity
  8
OBJECT2
100
AcDbLine
 10
26.42961932971064
 20
13.05728638710975
 30
0.0
 11
26.33469007367422
 21
13.05728061508582
 31
0.0
  0
LINE
  5
CF6
330
1F
100
AcDbEntity
  8
OBJECT2
100
AcDbLine
 10
26.3346903421405
 20
13.06677546022299
 30
0.0
 11
26.42960751719654
 21
13.06677532598988
 31
0.0
  0
LINE
  5
CF7
330
1F
100
AcDbEntity
  8
OBJECT2
100
AcDbLine
 10
26.41062883403755
 20
13.0809863173799
 30
0.0
 11
26.35366902529942
 21
13.0809979956609
 31
0.0
  0
LINE
  5
CF8
330
1F
100
AcDbEntity
  8
OBJECT2
100
AcDbLine
 10
26.35367619182599
 20
13.09304421605513
 30
0.0
 11
26.41062848831301
 21
13.09304594773086
 31
0.0
  0
LINE
  5
CF9
330
1F
100
AcDbEntity
  8
OBJECT2
100
AcDbLine
 10
26.35368056934731
 20
13.11258304755642
 30
0.0
 11
26.38216067506601
 21
13.10895620302957
 31
0.0
  0
LINE
  5
CFA
330
1F
100
AcDbEntity
  8
OBJECT2
100
AcDbLine
 10
26.38216067506601
 20
13.15640358209252
 30
0.0
 11
26.35368083781352
 21
13.15277700603191
 31
0.0
  0
LINE
  5
CFB
330
1F
100
AcDbEntity
  8
OBJECT2
100
AcDbLine
 10
26.34655493868502
 20
13.07726148267932
 30
0.0
 11
26.38216067506601
 21
13.08099786142778
 31
0.0
  0
LINE
  5
CFC
330
1F
100
AcDbEntity
  8
OBJECT2
100
AcDbLine
 10
26.73017487251713
 20
12.96460510027697
 30
0.0
 11
26.73017487251713
 21
12.7749733620978
 31
0.0
  0
LINE
  5
CFD
330
1F
100
AcDbEntity
  8
OBJECT2
100
AcDbLine
 10
26.73017487251713
 20
12.96460785287419
 30
0.0
 11
26.73017487251713
 21
12.77497060950056
 31
0.0
  0
LINE
  5
CFE
330
1F
100
AcDbEntity
  8
OBJECT2
100
AcDbLine
 10
26.5362848554339
 20
12.73931592457363
 30
0.0
 11
26.5362965337149
 21
13.00032080634767
 31
0.0
  0
LINE
  5
CFF
330
1F
100
AcDbEntity
  8
OBJECT2
100
AcDbLine
 10
26.64059909428936
 20
12.80458865055696
 30
0.0
 11
26.64059909428936
 21
12.93499569668082
 31
0.0
  0
LINE
  5
D00
330
1F
100
AcDbEntity
  8
OBJECT2
100
AcDbLine
 10
26.61075201816039
 20
12.77497924696083
 30
0.0
 11
26.61075161546108
 21
12.96465157770343
 31
0.0
  0
LINE
  5
D01
330
1F
100
AcDbEntity
  8
OBJECT2
100
AcDbLine
 10
26.67045775031006
 20
12.96459940524822
 30
0.0
 11
26.67045775031006
 21
12.77493862242247
 31
0.0
  0
LINE
  5
D02
330
1F
100
AcDbEntity
  8
OBJECT2
100
AcDbLine
 10
26.7003162164965
 20
12.80458865055696
 30
0.0
 11
26.7003162164965
 21
12.93499569668082
 31
0.0
  0
LINE
  5
D03
330
1F
100
AcDbEntity
  8
OBJECT1
100
AcDbLine
 10
26.6107487086281
 20
12.77497060950056
 30
0.0
 11
26.59869009893722
 21
12.74349916536102
 31
0.0
  0
LINE
  5
D04
330
1F
100
AcDbEntity
  8
OBJECT1
100
AcDbLine
 10
26.53687615230424
 20
12.74351003824331
 30
0.0
 11
26.59869009893722
 21
12.74349916536102
 31
0.0
  0
LINE
  5
D05
330
1F
100
AcDbEntity
  8
OBJECT2
100
AcDbLine
 10
26.59873667782798
 20
12.80666322866189
 30
0.0
 11
26.53629639948173
 21
12.80665718817174
 31
0.0
  0
LINE
  5
D06
330
1F
100
AcDbEntity
  8
OBJECT2
100
AcDbLine
 10
26.61075201816039
 20
12.77497924696083
 30
0.0
 11
26.59873667782798
 21
12.80666322866189
 31
0.0
  0
LINE
  5
D07
330
1F
100
AcDbEntity
  8
OBJECT2
100
AcDbLine
 10
26.61057832050995
 20
12.84995032080008
 30
0.0
 11
26.59873667782798
 21
12.80666322866189
 31
0.0
  0
LINE
  5
D08
330
1F
100
AcDbEntity
  8
OBJECT1
100
AcDbLine
 10
26.6107683740811
 20
12.96460785287419
 30
0.0
 11
26.59869036740343
 21
12.9961205179547
 31
0.0
  0
LINE
  5
D09
330
1F
100
AcDbEntity
  8
OBJECT2
100
AcDbLine
 10
26.59873640936177
 20
12.93296826716793
 30
0.0
 11
26.53629653371483
 21
12.93297390495875
 31
0.0
  0
LINE
  5
D0A
330
1F
100
AcDbEntity
  8
OBJECT2
100
AcDbLine
 10
26.61075161546108
 20
12.96465157770343
 30
0.0
 11
26.59873640936177
 21
12.93296826716793
 31
0.0
  0
LINE
  5
D0B
330
1F
100
AcDbEntity
  8
OBJECT2
100
AcDbLine
 10
26.61057778357753
 20
12.88968654435434
 30
0.0
 11
26.59873640936177
 21
12.93296826716793
 31
0.0
  0
LINE
  5
D0C
330
1F
100
AcDbEntity
  8
OBJECT1
100
AcDbLine
 10
26.53687615230424
 20
12.99612092065405
 30
0.0
 11
26.59869036740343
 21
12.9961205179547
 31
0.0
  0
ARC
  5
D0D
330
1F
100
AcDbEntity
  8
OBJECT1
100
AcDbCircle
 10
26.6156829248557
 20
13.10897413374413
 30
0.0
 40
0.0037596681405444
100
AcDbArc
 50
359.5551299999997
 51
90.45261399998732
  0
ARC
  5
D0E
330
1F
100
AcDbEntity
  8
OBJECT1
100
AcDbCircle
 10
26.61566240947546
 20
13.09302652312975
 30
0.0
 40
0.0037790312382639
100
AcDbArc
 50
269.8602600000039
 51
0.3182679999991578
  0
LINE
  5
D0F
330
1F
100
AcDbEntity
  8
OBJECT1
100
AcDbLine
 10
26.61944247966793
 20
13.10894494229628
 30
0.0
 11
26.61944138241086
 21
13.09304751487711
 31
0.0
  0
LINE
  5
D10
330
1F
100
AcDbEntity
  8
OBJECT2
100
AcDbLine
 10
27.32357240269458
 20
13.21595025390221
 30
0.0
 11
27.6961582826708
 21
13.21595025390221
 31
0.0
  0
LINE
  5
D11
330
1F
100
AcDbEntity
  8
OBJECT2
100
AcDbLine
 10
26.68250832927931
 20
13.21595025390221
 30
0.0
 11
26.68250832927931
 21
13.69986514954237
 31
0.0
  0
ARC
  5
D12
330
1F
100
AcDbEntity
  8
OBJECT1
100
AcDbCircle
 10
27.84786619652881
 20
12.8223842750209
 30
0.0
 40
0.0484875855828642
100
AcDbArc
 50
282.113397257393
 51
77.8856634598608
  0
ARC
  5
D13
330
1F
100
AcDbEntity
  8
OBJECT2
100
AcDbCircle
 10
27.86821771792781
 20
12.8223842750209
 30
0.0
 40
0.0484875855828642
100
AcDbArc
 50
102.1143365401392
 51
257.8866027425815
  0
ARC
  5
D14
330
1F
100
AcDbEntity
  8
OBJECT1
100
AcDbCircle
 10
27.84786619652881
 20
12.9171998823826
 30
0.0
 40
0.0484875855828642
100
AcDbArc
 50
282.1143365401392
 51
77.88660274260699
  0
LINE
  5
D15
330
1F
100
AcDbEntity
  8
OBJECT1
100
AcDbLine
 10
26.6107683740811
 20
12.96460785287419
 30
0.0
 11
27.85804118004357
 21
12.96460785287417
 31
0.0
  0
LINE
  5
D16
330
1F
100
AcDbEntity
  8
OBJECT1
100
AcDbLine
 10
26.6107487086281
 20
12.77497060950056
 30
0.0
 11
27.85804273441306
 21
12.77497541142543
 31
0.0
  0
LINE
  5
D17
330
1F
100
AcDbEntity
  8
OBJECT2
100
AcDbLine
 10
27.32357240269458
 20
12.96460785287417
 30
0.0
 11
27.32357240269458
 21
13.21595025390221
 31
0.0
  0
LINE
  5
D18
330
1F
100
AcDbEntity
  8
OBJECT2
100
AcDbLine
 10
27.32357240269458
 20
12.61423866977285
 30
0.0
 11
27.32357240269458
 21
12.774973353782
 31
0.0
  0
LINE
  5
D19
330
1F
100
AcDbEntity
  8
OBJECT2
100
AcDbLine
 10
26.04144425586404
 20
13.01217978970553
 30
0.0
 11
26.04144425586404
 21
13.21595025390221
 31
0.0
  0
LINE
  5
D1A
330
1F
100
AcDbEntity
  8
OBJECT2
100
AcDbLine
 10
26.0414442558641
 20
13.01217978970554
 30
0.0
 11
26.04144425586404
 21
13.21595025390221
 31
0.0
  0
LINE
  5
D1B
330
1F
100
AcDbEntity
  8
OBJECT2
100
AcDbLine
 10
26.05604865294036
 20
12.61423866977285
 30
0.0
 11
26.68250832927931
 21
12.61423866977285
 31
0.0
  0
ARC
  5
D1C
330
1F
100
AcDbEntity
  8
OBJECT1
100
AcDbCircle
 10
25.46724502759314
 20
13.40182046174751
 30
0.0
 40
0.0118661618848346
100
AcDbArc
 50
225.0074160000098
 51
314.9930109999982
  0
ARC
  5
D1D
330
1F
100
AcDbEntity
  8
OBJECT1
100
AcDbCircle
 10
25.5444964535854
 20
13.44551065592922
 30
0.0
 40
0.0118655923819605
100
AcDbArc
 50
45.00065600000828
 51
134.9947549999977
  0
LINE
  5
D1E
330
1F
100
AcDbEntity
  8
OBJECT1
100
AcDbLine
 10
25.53610701814798
 20
13.45390170216398
 30
0.0
 11
25.47563459726367
 21
13.39342901281339
 31
0.0
  0
LINE
  5
D1F
330
1F
100
AcDbEntity
  8
OBJECT1
100
AcDbLine
 10
25.34916760650469
 20
13.46546367015141
 30
0.0
 11
25.34123040243085
 21
13.46546340168518
 31
0.0
  0
ARC
  5
D20
330
1F
100
AcDbEntity
  8
OBJECT1
100
AcDbCircle
 10
25.3641871510613
 20
13.47131334794158
 30
0.0
 40
0.0118682500620397
100
AcDbArc
 50
45.01311499998924
 51
134.9842679999901
  0
LINE
  5
D21
330
1F
100
AcDbEntity
  8
OBJECT1
100
AcDbLine
 10
25.34539491769872
 20
13.46930535477837
 30
0.0
 11
25.35579744715773
 21
13.47970788423733
 31
0.0
  0
LINE
  5
D22
330
1F
100
AcDbEntity
  8
OBJECT1
100
AcDbLine
 10
25.37257712343121
 20
13.47970734730489
 30
0.0
 11
25.45885559215578
 21
13.39342887858029
 31
0.0
  0
LINE
  5
D23
330
1F
100
AcDbEntity
  8
OBJECT1
100
AcDbLine
 10
25.65752154158513
 20
13.33248717872684
 30
0.0
 11
25.59704912070082
 21
13.27201448937626
 31
0.0
  0
ARC
  5
D24
330
1F
100
AcDbEntity
  8
OBJECT1
100
AcDbCircle
 10
25.60543963000308
 20
13.26362532240509
 30
0.0
 40
0.0118650228790864
100
AcDbArc
 50
135.0052489999898
 51
224.9978030000032
  0
ARC
  5
D25
330
1F
100
AcDbEntity
  8
OBJECT1
100
AcDbCircle
 10
25.64912901878611
 20
13.34087621146488
 30
0.0
 40
0.011866351719126
100
AcDbArc
 50
315.0122379999954
 51
44.99213399999552
  0
ARC
  5
D26
330
1F
100
AcDbEntity
  8
OBJECT1
100
AcDbCircle
 10
25.24087504119779
 20
13.34902127551692
 30
0.0
 40
0.0114054340596843
100
AcDbArc
 50
315.0263670000027
 51
44.97453300000158
  0
LINE
  5
D27
330
1F
100
AcDbEntity
  8
OBJECT1
100
AcDbLine
 10
25.24894365949103
 20
13.35708264522191
 30
0.0
 11
25.24894365949103
 21
13.35708264522191
 31
0.0
  0
ARC
  5
D28
330
1F
100
AcDbEntity
  8
OBJECT1
100
AcDbCircle
 10
25.25698569962751
 20
13.36513273934528
 30
0.0
 40
0.0113786674246014
100
AcDbArc
 50
134.9735640000043
 51
225.0291750000006
  0
LINE
  5
D29
330
1F
100
AcDbEntity
  8
OBJECT2
100
AcDbLine
 10
25.59704952340014
 20
13.25523575273458
 30
0.0
 11
25.45885559215578
 21
13.39342887858029
 31
0.0
  0
LINE
  5
D2A
330
1F
100
AcDbEntity
  8
OBJECT1
100
AcDbLine
 10
25.34123040243085
 20
13.46546340168518
 30
0.0
 11
25.24894325679166
 21
13.37318243076928
 31
0.0
  0
LINE
  5
D2B
330
1F
100
AcDbEntity
  8
OBJECT2
100
AcDbLine
 10
25.60520351395432
 20
13.40158327183379
 30
0.0
 11
25.52795262489455
 21
13.324332382774
 31
0.0
  0
LINE
  5
D2C
330
1F
100
AcDbEntity
  8
OBJECT1
100
AcDbLine
 10
25.55288682865456
 20
13.4539010309984
 30
0.0
 11
25.65752087041961
 21
13.34926591536852
 31
0.0
  0
LINE
  5
D37
330
1F
100
AcDbEntity
  8
OBJECT2
100
AcDbLine
 10
24.81714312652476
 20
12.77499096459868
 30
0.0
 11
24.81714285805848
 21
12.9646398045462
 31
0.0
  0
LINE
  5
D38
330
1F
100
AcDbEntity
  8
OBJECT2
100
AcDbLine
 10
24.83320101630538
 20
12.93502502725596
 30
0.0
 11
24.83320098289965
 21
12.8045833268533
 31
0.0
  0
LINE
  5
D39
330
1F
100
AcDbEntity
  8
OBJECT2
100
AcDbLine
 10
24.8492501567735
 20
12.96464585838917
 30
0.0
 11
24.84925003490465
 21
12.77499084371821
 31
0.0
  0
LINE
  5
D3A
330
1F
100
AcDbEntity
  8
OBJECT2
100
AcDbLine
 10
24.88134842253794
 20
12.96464582535792
 30
0.0
 11
24.88134815407173
 21
12.77499081068713
 31
0.0
  0
LINE
  5
D3B
330
1F
100
AcDbEntity
  8
OBJECT2
100
AcDbLine
 10
24.86529925917396
 20
12.93502500663024
 30
0.0
 11
24.86529912494079
 21
12.80458330622763
 31
0.0
  0
LINE
  5
D3C
330
1F
100
AcDbEntity
  8
OBJECT2
100
AcDbLine
 10
24.91552833477428
 20
12.80526091499077
 30
0.0
 11
24.91552833477428
 21
12.9343357195861
 31
0.0
  0
LINE
  5
D3D
330
1F
100
AcDbEntity
  8
OBJECT2
100
AcDbLine
 10
25.01044550983032
 20
12.93434686093462
 30
0.0
 11
25.0104460467628
 21
12.80527259327175
 31
0.0
  0
LINE
  5
D3E
330
1F
100
AcDbEntity
  8
OBJECT2
100
AcDbLine
 10
24.63507174590366
 20
12.73929274160165
 30
0.0
 11
24.63507134320428
 21
12.97848608456353
 31
0.0
  0
LINE
  5
D3F
330
1F
100
AcDbEntity
  8
OBJECT2
100
AcDbLine
 10
24.74268750784609
 20
12.73930428564953
 30
0.0
 11
24.7426994545933
 21
13.00031480521438
 31
0.0
  0
LINE
  5
D41
330
1F
100
AcDbEntity
  8
OBJECT2
100
AcDbLine
 10
24.20423625933601
 20
12.96460510027697
 30
0.0
 11
24.20423625933601
 21
12.7749733620978
 31
0.0
  0
LINE
  5
D42
330
1F
100
AcDbEntity
  8
OBJECT2
100
AcDbLine
 10
24.23409491535671
 20
12.80463803108411
 30
0.0
 11
24.23409491535671
 21
12.9350448873737
 31
0.0
  0
LINE
  5
D43
330
1F
100
AcDbEntity
  8
OBJECT2
100
AcDbLine
 10
24.26395262220592
 20
12.96464859594109
 30
0.0
 11
24.26395262220592
 21
12.77498800294964
 31
0.0
  0
LINE
  5
D44
330
1F
100
AcDbEntity
  8
OBJECT2
100
AcDbLine
 10
24.29381127822668
 20
12.80463803108411
 30
0.0
 11
24.29381127822668
 21
12.9350448873737
 31
0.0
  0
LINE
  5
D45
330
1F
100
AcDbEntity
  8
OBJECT2
100
AcDbLine
 10
24.32369309403091
 20
12.96464290091236
 30
0.0
 11
24.32369297216206
 21
12.7749878862414
 31
0.0
  0
LINE
  5
D4A
330
1F
100
AcDbEntity
  8
OBJECT2
100
AcDbLine
 10
25.62960890635888
 20
12.97639431025833
 30
0.0
 11
25.41622590669701
 21
12.76301238446125
 31
0.0
  0
LINE
  5
D4D
330
1F
100
AcDbEntity
  8
OBJECT2
100
AcDbLine
 10
25.1229282960466
 20
12.72743403163568
 30
0.0
 11
25.14833741656661
 21
12.72743980365961
 31
0.0
  0
LINE
  5
D51
330
1F
100
AcDbEntity
  8
OBJECT2
100
AcDbLine
 10
25.27620653932542
 20
12.82752481939956
 30
0.0
 11
25.26158479460431
 21
12.81289072523192
 31
0.0
  0
LINE
  5
D52
330
1F
100
AcDbEntity
  8
OBJECT2
100
AcDbLine
 10
25.44004100897955
 20
12.71710465922424
 30
0.0
 11
25.42551134817513
 21
12.70257499841984
 31
0.0
  0
LINE
  5
D53
330
1F
100
AcDbEntity
  8
OBJECT2
100
AcDbLine
 10
25.60262335213956
 20
12.69344499888848
 30
0.0
 11
25.60262362060577
 21
12.63645633003068
 31
0.0
  0
ARC
  5
D54
330
1F
100
AcDbEntity
  8
OBJECT1
100
AcDbCircle
 10
25.12292534291804
 20
12.71462228623357
 30
0.0
 40
0.0118676805591656
100
AcDbArc
 50
270.0142209999826
 51
359.9864040000009
  0
LINE
  5
D55
330
1F
100
AcDbEntity
  8
OBJECT1
100
AcDbLine
 10
25.12245673058971
 20
12.70275904122148
 30
0.0
 11
25.12245673058971
 21
12.70275904122148
 31
0.0
  0
LINE
  5
D56
330
1F
100
AcDbEntity
  8
OBJECT1
100
AcDbLine
 10
25.13479262412492
 20
12.71556943509111
 30
0.0
 11
25.13479302682423
 21
12.71461946733817
 31
0.0
  0
LINE
  5
D57
330
1F
100
AcDbEntity
  8
OBJECT2
100
AcDbLine
 10
25.20598087455799
 20
12.51085225684978
 30
0.0
 11
25.20598033762557
 21
12.67866056363234
 31
0.0
  0
ARC
  5
D58
330
1F
100
AcDbEntity
  8
OBJECT2
100
AcDbCircle
 10
25.49241165599141
 20
12.63555441773283
 30
0.0
 40
0.0946963684031682
100
AcDbArc
 50
134.9485169999959
 51
180.0608830000016
  0
ARC
  5
D59
330
1F
100
AcDbEntity
  8
OBJECT2
100
AcDbCircle
 10
25.39576515571833
 20
12.67867438964316
 30
0.0
 40
0.1897851242865941
100
AcDbArc
 50
134.992348000004
 51
180.0041810000024
  0
ARC
  5
D5A
330
1F
100
AcDbEntity
  8
OBJECT2
100
AcDbCircle
 10
25.14838802245083
 20
12.8459766375832
 30
0.0
 40
0.1185367078846258
100
AcDbArc
 50
269.9755550000029
 51
307.6321560000125
  0
ARC
  5
D5B
330
1F
100
AcDbEntity
  8
OBJECT1
100
AcDbCircle
 10
25.12289567739968
 20
12.71553789030914
 30
0.0
 40
0.0118961557028708
100
AcDbArc
 50
0.1522830000021525
 51
89.84215900000046
  0
LINE
  5
D5C
330
1F
100
AcDbEntity
  8
OBJECT1
100
AcDbLine
 10
24.81714312652476
 20
12.77499096459868
 30
0.0
 11
24.80509261711624
 21
12.74350484250871
 31
0.0
  0
ARC
  5
D5D
330
1F
100
AcDbEntity
  8
OBJECT1
100
AcDbCircle
 10
24.88589516660002
 20
12.74587605080195
 30
0.0
 40
0.0119322242182307
100
AcDbArc
 50
45.12865400000751
 51
89.80207100000409
  0
LINE
  5
D5E
330
1F
100
AcDbEntity
  8
OBJECT2
100
AcDbLine
 10
24.92160023548591
 20
12.73917150942063
 30
0.0
 11
24.92159969855343
 21
12.79519235752125
 31
0.0
  0
ARC
  5
D5F
330
1F
100
AcDbEntity
  8
OBJECT1
100
AcDbCircle
 10
24.92612899231063
 20
12.7393108433937
 30
0.0
 40
0.0118710975764102
100
AcDbArc
 50
225.125823999993
 51
270.0617829999891
  0
LINE
  5
D60
330
1F
100
AcDbEntity
  8
OBJECT1
100
AcDbLine
 10
24.91775338288401
 20
12.73089845409369
 30
0.0
 11
24.89431332792395
 21
12.75433233433046
 31
0.0
  0
LINE
  5
D61
330
1F
100
AcDbEntity
  8
OBJECT2
100
AcDbLine
 10
24.99905609851187
 20
12.7938713694392
 30
0.0
 11
24.92691828302521
 21
12.79387150367233
 31
0.0
  0
ARC
  5
D62
330
1F
100
AcDbEntity
  8
OBJECT2
100
AcDbCircle
 10
24.92693170633669
 20
12.80527514370094
 30
0.0
 40
0.0114033458824793
100
AcDbArc
 50
180.0713809999991
 51
269.9324649999982
  0
LINE
  5
D63
330
1F
100
AcDbEntity
  8
OBJECT2
100
AcDbLine
 10
24.81714312652476
 20
12.77499096459868
 30
0.0
 11
24.80515100852117
 21
12.80665091857223
 31
0.0
  0
LINE
  5
D64
330
1F
100
AcDbEntity
  8
OBJECT1
100
AcDbLine
 10
24.88134842253794
 20
12.77499121338647
 30
0.0
 11
24.881348422538
 21
12.7578023945793
 31
0.0
  0
LINE
  5
D65
330
1F
100
AcDbEntity
  8
OBJECT1
100
AcDbLine
 10
24.881348422538
 20
12.7578023945793
 30
0.0
 11
24.88593637616628
 21
12.75780843506946
 31
0.0
  0
LINE
  5
D66
330
1F
100
AcDbEntity
  8
OBJECT1
100
AcDbLine
 10
24.81714310472069
 20
12.77499102216273
 30
0.0
 11
24.88134815407173
 21
12.77499081068713
 31
0.0
  0
LINE
  5
D67
330
1F
100
AcDbEntity
  8
OBJECT2
100
AcDbLine
 10
24.81699238273693
 20
12.84995009169072
 30
0.0
 11
24.80515100852117
 21
12.80665091857223
 31
0.0
  0
ARC
  5
D68
330
1F
100
AcDbEntity
  8
OBJECT2
100
AcDbCircle
 10
24.9990420040348
 20
12.80527514370094
 30
0.0
 40
0.011403725551062
100
AcDbArc
 50
270.0707549999874
 51
359.9871370000004
  0
LINE
  5
D6A
330
1F
100
AcDbEntity
  8
OBJECT1
100
AcDbLine
 10
24.74268750784609
 20
12.73930428564953
 30
0.0
 11
24.63507174590366
 21
12.73929274160165
 31
0.0
  0
LINE
  5
D6B
330
1F
100
AcDbEntity
  8
OBJECT1
100
AcDbLine
 10
24.63461951454013
 20
12.7432841632681
 30
0.0
 11
24.50598579995979
 21
12.74329597578219
 31
0.0
  0
LINE
  5
D6D
330
1F
100
AcDbEntity
  8
OBJECT1
100
AcDbLine
 10
24.80509261711624
 20
12.7434873922038
 30
0.0
 11
24.74327867048334
 21
12.74348698950445
 31
0.0
  0
LINE
  5
D6E
330
1F
100
AcDbEntity
  8
OBJECT2
100
AcDbLine
 10
24.80515100852117
 20
12.80665091857223
 30
0.0
 11
24.74269905189392
 21
12.80664554924762
 31
0.0
  0
LINE
  5
D6F
330
1F
100
AcDbEntity
  8
OBJECT1
100
AcDbLine
 10
24.33667139762995
 20
12.73928106332067
 30
0.0
 11
24.32368792417066
 21
12.77497041966627
 31
0.0
  0
LINE
  5
D70
330
1F
100
AcDbEntity
  8
OBJECT1
100
AcDbLine
 10
24.40040903903005
 20
12.751168747961
 30
0.0
 11
24.39609894794928
 21
12.73929247313543
 31
0.0
  0
LINE
  5
D71
330
1F
100
AcDbEntity
  8
OBJECT1
100
AcDbLine
 10
24.33668227051226
 20
12.73929301006788
 30
0.0
 11
24.39609894794928
 21
12.73929247313543
 31
0.0
  0
LINE
  5
D72
330
1F
100
AcDbEntity
  8
OBJECT1
100
AcDbLine
 10
24.39609894794928
 20
12.73929247313543
 30
0.0
 11
24.33667139762995
 21
12.73928106332067
 31
0.0
  0
LINE
  5
D73
330
1F
100
AcDbEntity
  8
OBJECT2
100
AcDbLine
 10
24.38857830540181
 20
12.80458796121319
 30
0.0
 11
24.40043122366546
 21
12.77498405585793
 31
0.0
  0
LINE
  5
D74
330
1F
100
AcDbEntity
  8
OBJECT2
100
AcDbLine
 10
24.40041379734366
 20
12.84784898395116
 30
0.0
 11
24.38857830540181
 21
12.80458796121319
 31
0.0
  0
LINE
  5
D75
330
1F
100
AcDbEntity
  8
OBJECT2
100
AcDbLine
 10
24.33553551701312
 20
12.80458896369689
 30
0.0
 11
24.32368259874953
 21
12.77498505834163
 31
0.0
  0
LINE
  5
D76
330
1F
100
AcDbEntity
  8
OBJECT2
100
AcDbLine
 10
24.32369454549674
 20
12.84787001534488
 30
0.0
 11
24.33553551701312
 21
12.80458896369689
 31
0.0
  0
LINE
  5
D77
330
1F
100
AcDbEntity
  8
OBJECT2
100
AcDbLine
 10
24.38857830540181
 20
12.80458782698007
 30
0.0
 11
24.33553551701312
 21
12.80458896369689
 31
0.0
  0
LINE
  5
D78
330
1F
100
AcDbEntity
  8
OBJECT1
100
AcDbLine
 10
24.40040903903005
 20
12.751168747961
 30
0.0
 11
24.5059742559119
 21
12.75115156612232
 31
0.0
  0
LINE
  5
D7A
330
1F
100
AcDbEntity
  8
OBJECT1
100
AcDbLine
 10
25.01614963716258
 20
12.60772602298743
 30
0.0
 11
24.88215954528476
 21
12.60772602298743
 31
0.0
  0
LINE
  5
D7B
330
1F
100
AcDbEntity
  8
OBJECT2
100
AcDbLine
 10
24.86317611614796
 20
12.57956020543394
 30
0.0
 11
24.86317611614796
 21
12.51615448085899
 31
0.0
  0
ARC
  5
D7C
330
1F
100
AcDbEntity
  8
OBJECT1
100
AcDbCircle
 10
24.87629773555371
 20
12.54785734314647
 30
0.0
 40
0.0474259229262322
100
AcDbArc
 50
187.8706784006226
 51
221.9491785174336
  0
LINE
  5
D7D
330
1F
100
AcDbEntity
  8
OBJECT1
100
AcDbLine
 10
24.84102527195695
 20
12.51615448085899
 30
0.0
 11
24.86317611614796
 21
12.51615448085899
 31
0.0
  0
LINE
  5
D7E
330
1F
100
AcDbEntity
  8
OBJECT1
100
AcDbLine
 10
24.86317611614796
 20
12.51615448085899
 30
0.0
 11
24.86317611614796
 21
12.50697209244232
 31
0.0
  0
LINE
  5
D7F
330
1F
100
AcDbEntity
  8
OBJECT1
100
AcDbLine
 10
24.83894037974115
 20
12.55435173646525
 30
0.0
 11
24.83894037974115
 21
12.54136294982769
 31
0.0
  0
LINE
  5
D80
330
1F
100
AcDbEntity
  8
OBJECT1
100
AcDbLine
 10
24.84102527195695
 20
12.57956020543394
 30
0.0
 11
24.86317611614796
 21
12.57956020543394
 31
0.0
  0
ARC
  5
D81
330
1F
100
AcDbEntity
  8
OBJECT1
100
AcDbCircle
 10
24.88215954528476
 20
12.58874259385061
 30
0.0
 40
0.0189834291368059
100
AcDbArc
 50
90.0
 51
180.0
  0
LINE
  5
D82
330
1F
100
AcDbEntity
  8
OBJECT1
100
AcDbLine
 10
24.86317611614796
 20
12.58874259385061
 30
0.0
 11
24.86317611614796
 21
12.57956020543394
 31
0.0
  0
LINE
  5
D83
330
1F
100
AcDbEntity
  8
OBJECT1
100
AcDbLine
 10
24.83894037974115
 20
12.54136294982769
 30
0.0
 11
24.82931858038018
 21
12.54136294982769
 31
0.0
  0
LINE
  5
D84
330
1F
100
AcDbEntity
  8
OBJECT1
100
AcDbLine
 10
24.83894037974115
 20
12.55435173646525
 30
0.0
 11
24.82931858038018
 21
12.55435173646525
 31
0.0
  0
ARC
  5
D85
330
1F
100
AcDbEntity
  8
OBJECT1
100
AcDbCircle
 10
24.87629773555371
 20
12.54785734314647
 30
0.0
 40
0.0474259229262322
100
AcDbArc
 50
138.0508214825663
 51
172.1293215993773
  0
LINE
  5
D86
330
1F
100
AcDbEntity
  8
OBJECT2
100
AcDbLine
 10
25.03399261732637
 20
12.51765171024455
 30
0.0
 11
25.02753855493708
 21
12.5271472265473
 31
0.0
  0
LINE
  5
D87
330
1F
100
AcDbEntity
  8
OBJECT2
100
AcDbLine
 10
25.06550892956352
 20
12.63657057173052
 30
0.0
 11
25.06550786800219
 21
12.51764043466291
 31
0.0
  0
LINE
  5
D88
330
1F
100
AcDbEntity
  8
OBJECT2
100
AcDbLine
 10
25.06550786800219
 20
12.51764043466291
 30
0.0
 11
25.03399261732637
 21
12.51765171024455
 31
0.0
  0
LINE
  5
D89
330
1F
100
AcDbEntity
  8
OBJECT2
100
AcDbLine
 10
25.06550892956352
 20
12.63657057173052
 30
0.0
 11
25.0339924830932
 21
12.63656493382184
 31
0.0
  0
LINE
  5
D8A
330
1F
100
AcDbEntity
  8
OBJECT2
100
AcDbLine
 10
25.06550773376908
 20
12.60773192924447
 30
0.0
 11
25.03399275155947
 21
12.60772602298743
 31
0.0
  0
LINE
  5
D8B
330
1F
100
AcDbEntity
  8
OBJECT2
100
AcDbLine
 10
25.06550786800219
 20
12.54647961396356
 30
0.0
 11
25.03399261732637
 21
12.54649088954519
 31
0.0
  0
ARC
  5
D8C
330
1F
100
AcDbEntity
  8
OBJECT1
100
AcDbCircle
 10
25.02799675352245
 20
12.69090558602541
 30
0.0
 40
0.0118473682899892
100
AcDbArc
 50
89.91394399999961
 51
180.1101989999994
  0
LINE
  5
D8D
330
1F
100
AcDbEntity
  8
OBJECT2
100
AcDbLine
 10
25.03399261732637
 20
12.54649088954519
 30
0.0
 11
25.02753909186956
 21
12.53507234964084
 31
0.0
  0
LINE
  5
D8E
330
1F
100
AcDbEntity
  8
OBJECT2
100
AcDbLine
 10
25.02753909186956
 20
12.62706364549516
 30
0.0
 11
25.02753855493708
 21
12.5271472265473
 31
0.0
  0
LINE
  5
D8F
330
1F
100
AcDbEntity
  8
OBJECT2
100
AcDbLine
 10
25.0339924830932
 20
12.63656493382184
 30
0.0
 11
25.02753909186956
 21
12.62706364549516
 31
0.0
  0
LINE
  5
D90
330
1F
100
AcDbEntity
  8
OBJECT2
100
AcDbLine
 10
25.03399275155947
 20
12.60772602298743
 30
0.0
 11
25.02753895763645
 21
12.61913275037767
 31
0.0
  0
LINE
  5
D91
330
1F
100
AcDbEntity
  8
OBJECT2
100
AcDbLine
 10
25.03399261732637
 20
12.54649088954519
 30
0.0
 11
25.02753909186956
 21
12.57138455490463
 31
0.0
  0
LINE
  5
D92
330
1F
100
AcDbEntity
  8
OBJECT2
100
AcDbLine
 10
25.03399275155947
 20
12.60772602298743
 30
0.0
 11
25.02753895763645
 21
12.58282081358012
 31
0.0
  0
LINE
  5
D93
330
1F
100
AcDbEntity
  8
OBJECT1
100
AcDbLine
 10
25.01614963716258
 20
12.60772602298743
 30
0.0
 11
25.01614960728274
 21
12.69088276639591
 31
0.0
  0
LINE
  5
D94
330
1F
100
AcDbEntity
  8
OBJECT1
100
AcDbLine
 10
25.1229282960466
 20
12.72743403163568
 30
0.0
 11
24.92614187868964
 21
12.72743980365961
 31
0.0
  0
LINE
  5
D95
330
1F
100
AcDbEntity
  8
OBJECT1
100
AcDbLine
 10
25.12245673058971
 20
12.70275904122148
 30
0.0
 11
25.02801460652665
 21
12.70275286649821
 31
0.0
  0
LINE
  5
DAC
330
1F
100
AcDbEntity
  8
OBJECT1
100
AcDbLine
 10
25.66908431497126
 20
13.13827018453545
 30
0.0
 11
25.61411759952059
 21
13.08330346908478
 31
0.0
  0
LINE
  5
DAD
330
1F
100
AcDbEntity
  8
OBJECT1
100
AcDbLine
 10
25.61411746528749
 20
13.06639318399068
 30
0.0
 11
25.65442726694101
 21
13.02608338233718
 31
0.0
  0
ARC
  5
DAE
330
1F
100
AcDbEntity
  8
OBJECT1
100
AcDbCircle
 10
25.62258193703602
 20
13.07484852788741
 30
0.0
 40
0.0119639265448892
100
AcDbArc
 50
135.0312190000084
 51
224.9687809999915
  0
LINE
  5
DAF
330
1F
100
AcDbEntity
  8
OBJECT1
100
AcDbLine
 10
25.67292438880087
 20
13.14177588367624
 30
0.0
 11
25.67292438880087
 21
13.14177588367624
 31
0.0
  0
LINE
  5
DB0
330
1F
100
AcDbEntity
  8
OBJECT1
100
AcDbLine
 10
25.66908391227194
 20
13.14566307332909
 30
0.0
 11
25.66908431497126
 21
13.13827018453545
 31
0.0
  0
LINE
  5
DC6
330
1F
100
AcDbEntity
  8
OBJECT2
100
AcDbLine
 10
24.99905636697814
 20
12.94574217851012
 30
0.0
 11
24.926918014559
 21
12.94573667495241
 31
0.0
  0
LINE
  5
DC7
330
1F
100
AcDbEntity
  8
OBJECT1
100
AcDbLine
 10
24.92614161022336
 20
13.01219146306085
 30
0.0
 11
24.96499202945359
 21
13.01217951631364
 31
0.0
  0
LINE
  5
DC8
330
1F
100
AcDbEntity
  8
OBJECT1
100
AcDbLine
 10
24.80509301981562
 20
12.9961088790306
 30
0.0
 11
24.81714285805848
 21
12.9646398045462
 31
0.0
  0
LINE
  5
DC9
330
1F
100
AcDbEntity
  8
OBJECT2
100
AcDbLine
 10
24.92161137683443
 20
13.00043707190346
 30
0.0
 11
24.92158815450554
 21
12.94443353987463
 31
0.0
  0
LINE
  5
DCA
330
1F
100
AcDbEntity
  8
OBJECT1
100
AcDbLine
 10
24.91774183883611
 20
13.00870328134153
 30
0.0
 11
24.89432540890426
 21
12.98527557582803
 31
0.0
  0
ARC
  5
DCB
330
1F
100
AcDbEntity
  8
OBJECT2
100
AcDbCircle
 10
24.92691277946747
 20
12.9343522302592
 30
0.0
 40
0.0113843624533425
100
AcDbArc
 50
89.9729419999865
 51
180.0837399999982
  0
LINE
  5
DCC
330
1F
100
AcDbEntity
  8
OBJECT1
100
AcDbLine
 10
24.81714285805848
 20
12.9646398045462
 30
0.0
 11
24.81714285805848
 21
12.9646398045462
 31
0.0
  0
LINE
  5
DCD
330
1F
100
AcDbEntity
  8
OBJECT2
100
AcDbLine
 10
24.81714285805848
 20
12.9646398045462
 30
0.0
 11
24.80512751772607
 21
12.93295635977759
 31
0.0
  0
LINE
  5
DCE
330
1F
100
AcDbEntity
  8
OBJECT2
100
AcDbLine
 10
24.81698057022283
 20
12.88966886494007
 30
0.0
 11
24.80512751772607
 21
12.93295635977759
 31
0.0
  0
LINE
  5
DCF
330
1F
100
AcDbEntity
  8
OBJECT1
100
AcDbLine
 10
24.88134815407173
 20
12.96465750363891
 30
0.0
 11
24.881348422538
 21
12.98180551557919
 31
0.0
  0
LINE
  5
DD0
330
1F
100
AcDbEntity
  8
OBJECT1
100
AcDbLine
 10
24.881348422538
 20
12.98180551557919
 30
0.0
 11
24.88593651039938
 21
12.98180551557919
 31
0.0
  0
ARC
  5
DD1
330
1F
100
AcDbEntity
  8
OBJECT1
100
AcDbCircle
 10
24.88593436266952
 20
12.99368622009756
 30
0.0
 40
0.0118805892909786
100
AcDbArc
 50
270.0104980000053
 51
314.933640000008
  0
LINE
  5
DD2
330
1F
100
AcDbEntity
  8
OBJECT1
100
AcDbLine
 10
24.81714284719345
 20
12.96463983292123
 30
0.0
 11
24.88134842253794
 21
12.96464582535792
 31
0.0
  0
ARC
  5
DD3
330
1F
100
AcDbEntity
  8
OBJECT1
100
AcDbCircle
 10
24.92611999869192
 20
13.00038633178609
 30
0.0
 40
0.0118052250773055
100
AcDbArc
 50
89.89499700000331
 51
135.2099909999897
  0
ARC
  5
DD4
330
1F
100
AcDbEntity
  8
OBJECT1
100
AcDbCircle
 10
24.82208609331577
 20
13.10896212091684
 30
0.0
 40
0.0037596681405444
100
AcDbArc
 50
359.5551299999997
 51
90.45261399998732
  0
ARC
  5
DD5
330
1F
100
AcDbEntity
  8
OBJECT1
100
AcDbCircle
 10
24.82206557793553
 20
13.09301451030244
 30
0.0
 40
0.0037790312382639
100
AcDbArc
 50
269.8602600000039
 51
0.3182679999991578
  0
LINE
  5
DD6
330
1F
100
AcDbEntity
  8
OBJECT1
100
AcDbLine
 10
24.82584564812807
 20
13.10893292946897
 30
0.0
 11
24.82584455087093
 21
13.09303550204981
 31
0.0
  0
ARC
  5
DD7
330
1F
100
AcDbEntity
  8
OBJECT2
100
AcDbCircle
 10
24.99905341384959
 20
12.93434900866445
 30
0.0
 40
0.0113930948307454
100
AcDbArc
 50
359.989058999997
 51
89.98519499998669
  0
LINE
  5
DD8
330
1F
100
AcDbEntity
  8
OBJECT2
100
AcDbLine
 10
25.01044564406349
 20
12.86980395507926
 30
0.0
 11
25.01044564406349
 21
12.86980395507926
 31
0.0
  0
ARC
  5
DD9
330
1F
100
AcDbEntity
  8
OBJECT1
100
AcDbCircle
 10
24.98159639727917
 20
13.05752077780649
 30
0.0
 40
0.0113910066535404
100
AcDbArc
 50
134.9936260000023
 51
225.0072939999969
  0
LINE
  5
DDA
330
1F
100
AcDbEntity
  8
OBJECT1
100
AcDbLine
 10
24.97354281309487
 20
13.04946504589231
 30
0.0
 11
24.97840876350374
 21
13.0445988270172
 31
0.0
  0
ARC
  5
DDB
330
1F
100
AcDbEntity
  8
OBJECT1
100
AcDbCircle
 10
24.96495806847556
 20
13.03117981100406
 30
0.0
 40
0.0189997548858635
100
AcDbArc
 50
270.1022949999984
 51
44.93230399999946
  0
LINE
  5
DDC
330
1F
100
AcDbEntity
  8
OBJECT1
100
AcDbLine
 10
24.65975130944506
 20
13.00030876472421
 30
0.0
 11
24.7426994545933
 21
13.00031480521438
 31
0.0
  0
LINE
  5
DDD
330
1F
100
AcDbEntity
  8
OBJECT1
100
AcDbLine
 10
24.62962682718635
 20
13.10894419020227
 30
0.0
 11
24.68348115281528
 21
13.10893291462064
 31
0.0
  0
LINE
  5
DDE
330
1F
100
AcDbEntity
  8
OBJECT1
100
AcDbLine
 10
24.68348106315063
 20
13.09303595534575
 30
0.0
 11
24.61703165677309
 21
13.09303393490355
 31
0.0
  0
ARC
  5
DDF
330
1F
100
AcDbEntity
  8
OBJECT2
100
AcDbCircle
 10
24.58856426711
 20
13.20508138124193
 30
0.0
 40
0.2167936082566933
100
AcDbArc
 50
250.8299409999988
 51
289.1694640000003
  0
LINE
  5
DE0
330
1F
100
AcDbEntity
  8
OBJECT1
100
AcDbLine
 10
24.50598553149352
 20
12.98844457087898
 30
0.0
 11
24.50598539726041
 21
13.00030903319044
 31
0.0
  0
LINE
  5
DE5
330
1F
100
AcDbEntity
  8
OBJECT2
100
AcDbLine
 10
24.50598629432198
 20
12.74329597573679
 30
0.0
 11
24.50598553149352
 21
12.98844457087898
 31
0.0
  0
LINE
  5
DF2
330
1F
100
AcDbEntity
  8
OBJECT1
100
AcDbLine
 10
24.56007936028607
 20
13.09303220322784
 30
0.0
 11
24.51239379950614
 21
13.0930307533139
 31
0.0
  0
LINE
  5
DF3
330
1F
100
AcDbEntity
  8
OBJECT1
100
AcDbLine
 10
24.52116445698937
 20
13.07722611329006
 30
0.0
 11
24.53706128206723
 21
13.08098611706669
 31
0.0
  0
LINE
  5
DF4
330
1F
100
AcDbEntity
  8
OBJECT1
100
AcDbLine
 10
24.51239379950614
 20
13.05726283023458
 30
0.0
 11
24.5410932421343
 21
13.05726860225851
 31
0.0
  0
LINE
  5
DF5
330
1F
100
AcDbEntity
  8
OBJECT1
100
AcDbLine
 10
24.52116485968868
 20
13.0667753941429
 30
0.0
 11
24.54109351060057
 21
13.06676344739569
 31
0.0
  0
LINE
  5
DF6
330
1F
100
AcDbEntity
  8
OBJECT1
100
AcDbLine
 10
24.54750112833208
 20
13.1089444586685
 30
0.0
 11
24.4936466684701
 21
13.10894432443538
 31
0.0
  0
ARC
  5
DF7
330
1F
100
AcDbEntity
  8
OBJECT1
100
AcDbCircle
 10
24.48984903417072
 20
13.10894662936518
 30
0.0
 40
0.003797634998818
100
AcDbArc
 50
359.9652249999995
 51
90.04248799999928
  0
LINE
  5
DF8
330
1F
100
AcDbEntity
  8
OBJECT1
100
AcDbLine
 10
24.51239379950614
 20
13.0930307533139
 30
0.0
 11
24.51239379950614
 21
13.05726283023458
 31
0.0
  0
LINE
  5
DF9
330
1F
100
AcDbEntity
  8
OBJECT1
100
AcDbLine
 10
24.49899961661923
 20
13.09303045175191
 30
0.0
 11
24.49898820680444
 21
13.0572566555113
 31
0.0
  0
LINE
  5
DFA
330
1F
100
AcDbEntity
  8
OBJECT1
100
AcDbLine
 10
24.51737613002549
 20
13.01955983566909
 30
0.0
 11
24.49258045483982
 21
13.03672543214741
 31
0.0
  0
ARC
  5
DFB
330
1F
100
AcDbEntity
  8
OBJECT2
100
AcDbCircle
 10
24.50278955438042
 20
13.03827246879465
 30
0.0
 40
0.0037902314614547
100
AcDbArc
 50
179.827759000002
 51
269.8083949999804
  0
LINE
  5
DFC
330
1F
100
AcDbEntity
  8
OBJECT2
100
AcDbLine
 10
24.51737613002549
 20
13.019577285974
 30
0.0
 11
24.51737572732612
 21
13.04420490130006
 31
0.0
  0
ARC
  5
DFD
330
1F
100
AcDbEntity
  8
OBJECT2
100
AcDbCircle
 10
24.5086160769583
 20
13.03826683100382
 30
0.0
 40
0.0037777023982244
100
AcDbArc
 50
269.4796449999864
 51
0.3456419999985644
  0
LINE
  5
DFE
330
1F
100
AcDbEntity
  8
OBJECT2
100
AcDbLine
 10
24.50858184751406
 20
13.03448937692227
 30
0.0
 11
24.50277680223452
 21
13.03448293373277
 31
0.0
  0
LINE
  5
DFF
330
1F
100
AcDbEntity
  8
OBJECT2
100
AcDbLine
 10
24.49898821015485
 20
13.05726716016861
 30
0.0
 11
24.49899934004526
 21
13.03828386286729
 31
0.0
  0
LINE
  5
E00
330
1F
100
AcDbEntity
  8
OBJECT1
100
AcDbLine
 10
24.49475912028474
 20
13.05726850900874
 30
0.0
 11
24.49898821015485
 21
13.05726716016861
 31
0.0
  0
LINE
  5
E01
330
1F
100
AcDbEntity
  8
OBJECT2
100
AcDbLine
 10
24.51239326257366
 20
13.03828951640021
 30
0.0
 11
24.51239379950614
 21
13.05726283023458
 31
0.0
  0
LINE
  5
E02
330
1F
100
AcDbEntity
  8
OBJECT1
100
AcDbLine
 10
24.49094697206665
 20
13.03984192237205
 30
0.0
 11
24.49095824764834
 21
13.05347383210516
 31
0.0
  0
ARC
  5
E03
330
1F
100
AcDbEntity
  8
OBJECT1
100
AcDbCircle
 10
24.49488510318654
 20
13.03992004604483
 30
0.0
 40
0.0039388717115958
100
AcDbArc
 50
181.1378170000003
 51
234.1926269999939
  0
ARC
  5
E04
330
1F
100
AcDbEntity
  8
OBJECT1
100
AcDbCircle
 10
24.49474657461214
 20
13.05348000682841
 30
0.0
 40
0.0037885229528323
100
AcDbArc
 50
89.81026499999705
 51
180.0929260000021
  0
LINE
  5
E05
330
1F
100
AcDbEntity
  8
OBJECT1
100
AcDbLine
 10
24.52116445698937
 20
13.07722611329006
 30
0.0
 11
24.52116485968868
 21
13.0667753941429
 31
0.0
  0
LINE
  5
E06
330
1F
100
AcDbEntity
  8
OBJECT2
100
AcDbLine
 10
24.51737494281196
 20
13.0003094358898
 30
0.0
 11
24.51737494281196
 21
13.0003094358898
 31
0.0
  0
LINE
  5
E07
330
1F
100
AcDbEntity
  8
OBJECT2
100
AcDbLine
 10
24.51737494281196
 20
13.0003094358898
 30
0.0
 11
24.51737494281196
 21
13.0003094358898
 31
0.0
  0
LINE
  5
E08
330
1F
100
AcDbEntity
  8
OBJECT1
100
AcDbLine
 10
24.50598539726041
 20
13.00030903319044
 30
0.0
 11
24.51737494281196
 21
13.0003094358898
 31
0.0
  0
LINE
  5
E09
330
1F
100
AcDbEntity
  8
OBJECT1
100
AcDbLine
 10
24.51737572732612
 20
13.00030906198659
 30
0.0
 11
24.51737613002549
 21
13.01955983566909
 31
0.0
  0
LINE
  5
E0A
330
1F
100
AcDbEntity
  8
OBJECT1
100
AcDbLine
 10
24.49899948238612
 20
13.09303034605002
 30
0.0
 11
24.49364640000383
 21
13.09303018328569
 31
0.0
  0
ARC
  5
E0B
330
1F
100
AcDbEntity
  8
OBJECT1
100
AcDbCircle
 10
24.48984954998397
 20
13.09304413736942
 30
0.0
 40
0.0037968756616525
100
AcDbArc
 50
269.9459080000016
 51
359.7894290000001
  0
LINE
  5
E0C
330
1F
100
AcDbEntity
  8
OBJECT2
100
AcDbLine
 10
24.4936466684701
 20
13.10894432443538
 30
0.0
 11
24.49364640000383
 21
13.09303018328569
 31
0.0
  0
LINE
  5
E0F
330
1F
100
AcDbEntity
  8
OBJECT2
100
AcDbLine
 10
24.62962682718635
 20
13.10894419020227
 30
0.0
 11
24.54750112833208
 21
13.1089444586685
 31
0.0
  0
LINE
  5
E10
330
1F
100
AcDbEntity
  8
OBJECT1
100
AcDbLine
 10
24.54746622772226
 20
13.15640311331307
 30
0.0
 11
24.62966145932997
 21
13.15639130079898
 31
0.0
  0
LINE
  5
E11
330
1F
100
AcDbEntity
  8
OBJECT2
100
AcDbLine
 10
24.54750112833208
 20
13.1089444586685
 30
0.0
 11
24.56008373780738
 21
13.11257103472911
 31
0.0
  0
LINE
  5
E12
330
1F
100
AcDbEntity
  8
OBJECT2
100
AcDbLine
 10
24.54745468367443
 20
13.15639156926521
 30
0.0
 11
24.56008400627359
 21
13.1527649932046
 31
0.0
  0
LINE
  5
E13
330
1F
100
AcDbEntity
  8
OBJECT2
100
AcDbLine
 10
24.63602249817071
 20
13.05727437428244
 30
0.0
 11
24.5410932421343
 21
13.05726860225851
 31
0.0
  0
LINE
  5
E14
330
1F
100
AcDbEntity
  8
OBJECT2
100
AcDbLine
 10
24.54109351060057
 20
13.06676344739569
 30
0.0
 11
24.63601068565661
 21
13.06676331316257
 31
0.0
  0
LINE
  5
E15
330
1F
100
AcDbEntity
  8
OBJECT1
100
AcDbLine
 10
24.56008373780738
 20
13.08098625129981
 30
0.0
 11
24.53706128206723
 21
13.08098611706669
 31
0.0
  0
LINE
  5
E16
330
1F
100
AcDbEntity
  8
OBJECT2
100
AcDbLine
 10
24.5529581071451
 20
13.07724946985202
 30
0.0
 11
24.53706128206723
 21
13.08098611706669
 31
0.0
  0
LINE
  5
E17
330
1F
100
AcDbEntity
  8
OBJECT1
100
AcDbLine
 10
24.53540471119834
 20
13.11224055280064
 30
0.0
 11
24.53540444273213
 21
13.15312393255339
 31
0.0
  0
LINE
  5
E18
330
1F
100
AcDbEntity
  8
OBJECT1
100
AcDbLine
 10
24.54109351060057
 20
13.06676344739569
 30
0.0
 11
24.5410932421343
 21
13.05726860225851
 31
0.0
  0
LINE
  5
E19
330
1F
100
AcDbEntity
  8
OBJECT1
100
AcDbLine
 10
24.54750112833208
 20
13.1089444586685
 30
0.0
 11
24.53540471119834
 21
13.11224055280064
 31
0.0
  0
LINE
  5
E1A
330
1F
100
AcDbEntity
  8
OBJECT1
100
AcDbLine
 10
24.53540444273213
 20
13.15312393255339
 30
0.0
 11
24.54745468367443
 21
13.15639156926521
 31
0.0
  0
LINE
  5
E1B
330
1F
100
AcDbEntity
  8
OBJECT2
100
AcDbLine
 10
24.58856384352614
 20
13.10894419020227
 30
0.0
 11
24.61703173403142
 21
13.11257116896223
 31
0.0
  0
LINE
  5
E1C
330
1F
100
AcDbEntity
  8
OBJECT2
100
AcDbLine
 10
24.61703146556514
 20
13.15276539590395
 30
0.0
 11
24.58856384352614
 21
13.15639156926521
 31
0.0
  0
LINE
  5
E1D
330
1F
100
AcDbEntity
  8
OBJECT2
100
AcDbLine
 10
24.61703173403142
 20
13.11257116896223
 30
0.0
 11
24.62962682718635
 21
13.10894419020227
 31
0.0
  0
LINE
  5
E1E
330
1F
100
AcDbEntity
  8
OBJECT1
100
AcDbLine
 10
24.64171143180599
 20
13.1531185632288
 30
0.0
 11
24.64171089487351
 21
13.11223518347606
 31
0.0
  0
LINE
  5
E1F
330
1F
100
AcDbEntity
  8
OBJECT1
100
AcDbLine
 10
24.62962682718635
 20
13.10894419020227
 30
0.0
 11
24.64171089487351
 21
13.11223518347606
 31
0.0
  0
LINE
  5
E20
330
1F
100
AcDbEntity
  8
OBJECT2
100
AcDbLine
 10
24.61703173403142
 20
13.13266828243308
 30
0.0
 11
24.61703146556514
 21
13.15276539590395
 31
0.0
  0
LINE
  5
E21
330
1F
100
AcDbEntity
  8
OBJECT2
100
AcDbLine
 10
24.62966145932997
 20
13.15639130079898
 30
0.0
 11
24.61703146556514
 21
13.15276539590395
 31
0.0
  0
LINE
  5
E22
330
1F
100
AcDbEntity
  8
OBJECT1
100
AcDbLine
 10
24.64171143180599
 20
13.1531185632288
 30
0.0
 11
24.62966145932997
 21
13.15639130079898
 31
0.0
  0
LINE
  5
E23
330
1F
100
AcDbEntity
  8
OBJECT2
100
AcDbLine
 10
24.61703173403142
 20
13.13266828243308
 30
0.0
 11
24.61703173403142
 21
13.11257116896223
 31
0.0
  0
LINE
  5
E24
330
1F
100
AcDbEntity
  8
OBJECT2
100
AcDbLine
 10
24.56008373780738
 20
13.11257103472911
 30
0.0
 11
24.58856384352614
 21
13.10894419020227
 31
0.0
  0
LINE
  5
E25
330
1F
100
AcDbEntity
  8
OBJECT2
100
AcDbLine
 10
24.58856384352614
 20
13.15639156926521
 30
0.0
 11
24.56008400627359
 21
13.1527649932046
 31
0.0
  0
LINE
  5
E26
330
1F
100
AcDbEntity
  8
OBJECT2
100
AcDbLine
 10
24.56008360357428
 20
13.13269700831964
 30
0.0
 11
24.56008400627359
 21
13.1527649932046
 31
0.0
  0
LINE
  5
E27
330
1F
100
AcDbEntity
  8
OBJECT2
100
AcDbLine
 10
24.56008360357428
 20
13.13269700831964
 30
0.0
 11
24.56008373780738
 21
13.11257103472911
 31
0.0
  0
LINE
  5
E28
330
1F
100
AcDbEntity
  8
OBJECT2
100
AcDbLine
 10
24.56007936028607
 20
13.09303220322784
 30
0.0
 11
24.61703165677309
 21
13.09303393490355
 31
0.0
  0
LINE
  5
E29
330
1F
100
AcDbEntity
  8
OBJECT2
100
AcDbLine
 10
24.61703200249763
 20
13.08097430455261
 30
0.0
 11
24.56007219375949
 21
13.08098598283359
 31
0.0
  0
LINE
  5
E2A
330
1F
100
AcDbEntity
  8
OBJECT2
100
AcDbLine
 10
24.62415776739296
 20
13.07724946985202
 30
0.0
 11
24.58856384352614
 21
13.08098584860047
 31
0.0
  0
LINE
  5
E2B
330
1F
100
AcDbEntity
  8
OBJECT1
100
AcDbLine
 10
24.61703165677309
 20
13.09303393490355
 30
0.0
 11
24.61703200249763
 21
13.08097430455261
 31
0.0
  0
LINE
  5
E2C
330
1F
100
AcDbEntity
  8
OBJECT1
100
AcDbLine
 10
24.61703200249763
 20
13.08097430455261
 30
0.0
 11
24.64005418977157
 21
13.08097417031949
 31
0.0
  0
LINE
  5
E2D
330
1F
100
AcDbEntity
  8
OBJECT2
100
AcDbLine
 10
24.62415776739296
 20
13.07724946985202
 30
0.0
 11
24.64005418977157
 21
13.08097417031949
 31
0.0
  0
LINE
  5
E2E
330
1F
100
AcDbEntity
  8
OBJECT1
100
AcDbLine
 10
24.63601068565661
 20
13.06676331316257
 30
0.0
 11
24.63602249817071
 21
13.05727437428244
 31
0.0
  0
LINE
  5
E2F
330
1F
100
AcDbEntity
  8
OBJECT2
100
AcDbLine
 10
24.62415776739296
 20
13.07724946985202
 30
0.0
 11
24.62415776739296
 21
13.06676344739569
 31
0.0
  0
LINE
  5
E30
330
1F
100
AcDbEntity
  8
OBJECT1
100
AcDbLine
 10
24.56007936028607
 20
13.09303220322784
 30
0.0
 11
24.56007219375949
 21
13.08098598283359
 31
0.0
  0
LINE
  5
E31
330
1F
100
AcDbEntity
  8
OBJECT2
100
AcDbLine
 10
24.5529581071451
 20
13.07724946985202
 30
0.0
 11
24.58856384352614
 21
13.08098584860047
 31
0.0
  0
LINE
  5
E32
330
1F
100
AcDbEntity
  8
OBJECT2
100
AcDbLine
 10
24.5529581071451
 20
13.07724946985202
 30
0.0
 11
24.5529581071451
 21
13.06676371586192
 31
0.0
  0
LINE
  5
E33
330
1F
100
AcDbEntity
  8
OBJECT1
100
AcDbLine
 10
24.65595128331571
 20
13.07723806003727
 30
0.0
 11
24.65595128331571
 21
13.06676948788585
 31
0.0
  0
LINE
  5
E34
330
1F
100
AcDbEntity
  8
OBJECT1
100
AcDbLine
 10
24.65975169125989
 20
13.05726256176834
 30
0.0
 11
24.65975128856052
 21
13.00030892775348
 31
0.0
  0
LINE
  5
E35
330
1F
100
AcDbEntity
  8
OBJECT1
100
AcDbLine
 10
24.65595128331571
 20
13.07723806003727
 30
0.0
 11
24.64005418977157
 21
13.08097417031949
 31
0.0
  0
LINE
  5
E36
330
1F
100
AcDbEntity
  8
OBJECT1
100
AcDbLine
 10
24.63602249817071
 20
13.05727437428244
 30
0.0
 11
24.65975169125989
 21
13.05726256176834
 31
0.0
  0
LINE
  5
E37
330
1F
100
AcDbEntity
  8
OBJECT1
100
AcDbLine
 10
24.65595128331571
 20
13.06676948788585
 30
0.0
 11
24.63601068565661
 21
13.06676331316257
 31
0.0
  0
ARC
  5
E38
330
1F
100
AcDbEntity
  8
OBJECT1
100
AcDbCircle
 10
24.68725980245372
 20
13.10894238864897
 30
0.0
 40
0.003779600741138
100
AcDbArc
 50
89.85251200001178
 51
180.1436159999986
  0
ARC
  5
E39
330
1F
100
AcDbEntity
  8
OBJECT1
100
AcDbCircle
 10
24.68729767847834
 20
13.09304081999293
 30
0.0
 40
0.0038166184279548
100
AcDbArc
 50
180.0730289999989
 51
269.5811160000003
  0
LINE
  5
E3A
330
1F
100
AcDbEntity
  8
OBJECT2
100
AcDbLine
 10
24.68348115281528
 20
13.10893291462064
 30
0.0
 11
24.6834806158828
 21
13.09303595530962
 31
0.0
  0
LINE
  5
E3B
330
1F
100
AcDbEntity
  8
OBJECT2
100
AcDbLine
 10
24.80512751772607
 20
12.93295635977759
 30
0.0
 11
24.74269932036013
 21
12.93295622554448
 31
0.0
  0
LINE
  5
E3C
330
1F
100
AcDbEntity
  8
OBJECT1
100
AcDbLine
 10
24.68726946723796
 20
13.11272185622724
 30
0.0
 11
24.82205642779747
 21
13.11272158776102
 31
0.0
  0
LINE
  5
E3D
330
1F
100
AcDbEntity
  8
OBJECT1
100
AcDbLine
 10
24.74327840201706
 20
12.9961088790306
 30
0.0
 11
24.80509301981562
 21
12.9961088790306
 31
0.0
  0
LINE
  5
E3E
330
1F
100
AcDbEntity
  8
OBJECT1
100
AcDbLine
 10
24.8220563158506
 20
13.08923544542351
 30
0.0
 11
24.68726962375743
 21
13.08922363290941
 31
0.0
  0
LINE
  5
E3F
330
1F
100
AcDbEntity
  8
OBJECT2
100
AcDbLine
 10
24.38857830540181
 20
12.93502362112563
 30
0.0
 11
24.40041954538447
 21
12.9646386678294
 31
0.0
  0
LINE
  5
E40
330
1F
100
AcDbEntity
  8
OBJECT2
100
AcDbLine
 10
24.40041595793541
 20
12.8917482596213
 30
0.0
 11
24.38857830540181
 21
12.93502362112563
 31
0.0
  0
LINE
  5
E41
330
1F
100
AcDbEntity
  8
OBJECT1
100
AcDbLine
 10
24.33668280744474
 20
13.0003031269334
 30
0.0
 11
24.32368268920888
 21
12.96460785287419
 31
0.0
  0
LINE
  5
E42
330
1F
100
AcDbEntity
  8
OBJECT1
100
AcDbLine
 10
24.40042071731105
 20
12.98845007443667
 30
0.0
 11
24.39609894794928
 21
13.0003031269334
 31
0.0
  0
LINE
  5
E43
330
1F
100
AcDbEntity
  8
OBJECT2
100
AcDbLine
 10
24.33553551701312
 20
12.93502462360932
 30
0.0
 11
24.32369427703047
 21
12.9646396703131
 31
0.0
  0
LINE
  5
E44
330
1F
100
AcDbEntity
  8
OBJECT2
100
AcDbLine
 10
24.32369454549674
 20
12.89173712877179
 30
0.0
 11
24.33553551701312
 21
12.93502462360932
 31
0.0
  0
LINE
  5
E45
330
1F
100
AcDbEntity
  8
OBJECT2
100
AcDbLine
 10
24.38857843963491
 20
12.93502362112563
 30
0.0
 11
24.33553551701312
 21
12.93502462360932
 31
0.0
  0
ARC
  5
E46
330
1F
100
AcDbEntity
  8
OBJECT1
100
AcDbCircle
 10
24.36663404196576
 20
13.10894421316912
 30
0.0
 40
0.0037889026214151
100
AcDbArc
 50
89.81996500000091
 51
180.1761779999991
  0
ARC
  5
E47
330
1F
100
AcDbEntity
  8
OBJECT1
100
AcDbCircle
 10
24.36661428857862
 20
13.09302172043926
 30
0.0
 40
0.0037687801865301
100
AcDbArc
 50
179.5134279999994
 51
270.4846039999839
  0
LINE
  5
E48
330
1F
100
AcDbEntity
  8
OBJECT1
100
AcDbLine
 10
24.36284515725617
 20
13.1089325627432
 30
0.0
 11
24.36284564429135
 21
13.09305372560417
 31
0.0
  0
LINE
  5
E49
330
1F
100
AcDbEntity
  8
OBJECT1
100
AcDbLine
 10
24.33668280744474
 20
13.0003031269334
 30
0.0
 11
24.39609894794928
 21
13.0003031269334
 31
0.0
  0
LINE
  5
E4C
330
1F
100
AcDbEntity
  8
OBJECT1
100
AcDbLine
 10
24.50598553149352
 20
12.988444570879
 30
0.0
 11
24.40042071731105
 21
12.98845007443667
 31
0.0
  0
LINE
  5
E4D
330
1F
100
AcDbEntity
  8
OBJECT1
100
AcDbLine
 10
24.36723674865084
 20
13.11273307706542
 30
0.0
 11
24.48984608104223
 21
13.11274435264706
 31
0.0
  0
LINE
  5
E4E
330
1F
100
AcDbEntity
  8
OBJECT1
100
AcDbLine
 10
24.36664623605995
 20
13.08925299151016
 30
0.0
 11
24.48984592568983
 21
13.08924735371935
 31
0.0
  0
LINE
  5
E51
330
1F
100
AcDbEntity
  8
OBJECT2
100
AcDbLine
 10
25.23833802264763
 20
12.78467010263957
 30
0.0
 11
24.97840876350374
 21
13.0445988270172
 31
0.0
  0
LINE
  5
E52
330
1F
100
AcDbEntity
  8
OBJECT2
100
AcDbLine
 10
25.56840853929339
 20
13.03760058358085
 30
0.0
 11
25.24894365949103
 21
13.35708264522191
 31
0.0
  0
LINE
  5
E53
330
1F
100
AcDbEntity
  8
OBJECT2
100
AcDbLine
 10
25.34539491769872
 20
13.46930535477837
 30
0.0
 11
25.67292438880087
 21
13.14177588367624
 31
0.0
  0
LINE
  5
E54
330
1F
100
AcDbEntity
  8
OBJECT1
100
AcDbLine
 10
24.9735543571427
 20
13.06557060346363
 30
0.0
 11
25.24894379372414
 21
13.34096004004504
 31
0.0
  0
LINE
  5
E55
330
1F
100
AcDbEntity
  8
OBJECT2
100
AcDbLine
 10
24.76561628340078
 20
13.81766183803158
 30
0.0
 11
25.4003801824487
 21
13.81766183803158
 31
0.0
  0
LINE
  5
E56
330
1F
100
AcDbEntity
  8
OBJECT2
100
AcDbLine
 10
24.11825203561816
 20
13.21595025390221
 30
0.0
 11
24.11825203561822
 21
13.64153584225898
 31
0.0
  0
LINE
  5
E57
330
1F
100
AcDbEntity
  8
OBJECT2
100
AcDbLine
 10
25.4003801824487
 20
13.45190428828737
 30
0.0
 11
25.4003801824487
 21
13.81766183803158
 31
0.0
  0
LINE
  5
E58
330
1F
100
AcDbEntity
  8
OBJECT2
100
AcDbLine
 10
24.75931610903343
 20
13.21595025390221
 30
0.0
 11
25.12393400758126
 21
13.21595025390221
 31
0.0
  0
LINE
  5
E59
330
1F
100
AcDbEntity
  8
OBJECT2
100
AcDbLine
 10
24.11825203561816
 20
12.61423866977285
 30
0.0
 11
25.01614963482244
 21
12.61423866977283
 31
0.0
  0
LINE
  5
E5A
330
1F
100
AcDbEntity
  8
OBJECT2
100
AcDbLine
 10
24.75931610903343
 20
13.11272171272605
 30
0.0
 11
24.75931610903343
 21
13.21595025390221
 31
0.0
  0
LINE
  5
E5B
330
1F
100
AcDbEntity
  8
OBJECT2
100
AcDbLine
 10
24.75931610903336
 20
12.99610887903062
 30
0.0
 11
24.75931610903336
 21
13.08922994696096
 31
0.0
  0
LINE
  5
E5C
330
1F
100
AcDbEntity
  8
OBJECT2
100
AcDbLine
 10
24.75931610903343
 20
12.61423866977285
 30
0.0
 11
24.75931610903343
 21
12.74348709398356
 31
0.0
  0
LINE
  5
E5D
330
1F
100
AcDbEntity
  8
OBJECT2
100
AcDbLine
 10
25.60262335213956
 20
12.69344499888848
 30
0.0
 11
25.71885983317603
 21
12.69343909263145
 31
0.0
  0
LINE
  5
E5E
330
1F
100
AcDbEntity
  8
OBJECT2
100
AcDbLine
 10
25.60262362060577
 20
12.63645633003068
 30
0.0
 11
25.71885969894293
 21
12.63646827677789
 31
0.0
  0
ARC
  5
E5F
330
1F
100
AcDbEntity
  8
OBJECT1
100
AcDbCircle
 10
25.68804944058565
 20
13.0597855589182
 30
0.0
 40
0.0476055045835335
100
AcDbArc
 50
225.0679929999961
 51
269.9183349999817
  0
LINE
  5
E60
330
1F
100
AcDbEntity
  8
OBJECT1
100
AcDbLine
 10
25.67292438880087
 20
13.14177588367624
 30
0.0
 11
25.68332718672603
 21
13.15217895006767
 31
0.0
  0
LINE
  5
E61
330
1F
100
AcDbEntity
  8
OBJECT1
100
AcDbLine
 10
25.68332718672603
 20
13.16895808940868
 30
0.0
 11
25.59704952340014
 21
13.25523575273458
 31
0.0
  0
LINE
  5
E62
330
1F
100
AcDbEntity
  8
OBJECT2
100
AcDbLine
 10
25.4003801824487
 20
13.81766183803158
 30
0.0
 11
26.20711100001952
 21
13.81766183803158
 31
0.0
  0
LINE
  5
E63
330
1F
100
AcDbEntity
  8
OBJECT2
100
AcDbLine
 10
25.63633502223254
 20
13.2159502539022
 30
0.0
 11
26.04144425586404
 21
13.21595025390221
 31
0.0
  0
TEXT
  5
E6D
330
1F
100
AcDbEntity
  8
TEXT
100
AcDbText
 10
5.29120913566849
 20
12.97263233236433
 30
0.0
 40
0.1898342913680584
  1
HORN, LIGHT, ETC.
  7
ROMANS
 72
     2
 11
7.957928942981691
 21
13.06754947804836
 31
0.0
100
AcDbText
 73
     2
  0
TEXT
  5
E6E
330
1F
100
AcDbEntity
  8
TEXT
100
AcDbText
 10
5.299089362153504
 20
13.82731708013244
 30
0.0
 40
0.1898342913680584
  1
TO LOW VOLTAGE ELECTRICAL
  7
ROMANS
 72
     2
 11
9.556801325694246
 21
13.92223422581647
 31
0.0
100
AcDbText
 73
     2
  0
TEXT
  5
E6F
330
1F
100
AcDbEntity
  8
TEXT
100
AcDbText
 10
5.263028703019556
 20
13.37962507520671
 30
0.0
 40
0.1898342913680584
  1
CONTACT PANEL WITH ALARM
  7
ROMANS
 72
     2
 11
9.421303656796077
 21
13.47454222089074
 31
0.0
100
AcDbText
 73
     2
  0
LINE
  5
F07
330
1F
100
AcDbEntity
  8
0
100
AcDbLine
 10
23.46248929141744
 20
12.27882909955493
 30
0.0
 11
22.18332099660226
 21
13.21661308521803
 31
0.0
  0
SOLID
  5
F08
330
1F
100
AcDbEntity
  8
0
100
AcDbTrace
 10
23.32733366664237
 20
12.42150624175405
 30
0.0
 11
23.28576127257388
 21
12.36480012473248
 31
0.0
 12
23.47666582067284
 22
12.26843600103781
 32
0.0
 13
23.47666582067284
 23
12.26843600103781
 33
0.0
  0
LINE
  5
F09
330
1F
100
AcDbEntity
  8
0
100
AcDbLine
 10
8.477615299840202
 20
13.05785648916586
 30
0.0
 11
9.372174732324864
 21
13.05785648916586
 31
0.0
  0
LINE
  5
F0A
330
1F
100
AcDbEntity
  8
0
100
AcDbLine
 10
10.65134302714003
 20
12.12007250350277
 30
0.0
 11
9.372174732324864
 21
13.05785648916586
 31
0.0
  0
SOLID
  5
F0B
330
1F
100
AcDbEntity
  8
0
100
AcDbTrace
 10
10.51618740236497
 20
12.26274964570188
 30
0.0
 11
10.47461500829648
 21
12.20604352868031
 31
0.0
 12
10.66551955639544
 22
12.10967940498564
 32
0.0
 13
10.66551955639544
 23
12.10967940498564
 33
0.0
  0
TEXT
  5
F0C
330
1F
100
AcDbEntity
  8
TEXT
100
AcDbText
 10
18.10235539994589
 20
13.1313889284165
 30
0.0
 40
0.1898342913680584
  1
HORN, LIGHT, ETC.
  7
ROMANS
 72
     2
 11
20.76907520725909
 21
13.22630607410053
 31
0.0
100
AcDbText
 73
     2
  0
TEXT
  5
F0D
330
1F
100
AcDbEntity
  8
TEXT
100
AcDbText
 10
18.1102356264309
 20
13.98607367618461
 30
0.0
 40
0.1898342913680584
  1
TO LOW VOLTAGE ELECTRICAL
  7
ROMANS
 72
     2
 11
22.36794758997164
 21
14.08099082186864
 31
0.0
100
AcDbText
 73
     2
  0
TEXT
  5
F0E
330
1F
100
AcDbEntity
  8
TEXT
100
AcDbText
 10
18.07417496729696
 20
13.53838167125887
 30
0.0
 40
0.1898342913680584
  1
CONTACT PANEL WITH ALARM
  7
ROMANS
 72
     2
 11
22.23244992107348
 21
13.6332988169429
 31
0.0
100
AcDbText
 73
     2
  0
LINE
  5
F0F
330
1F
100
AcDbEntity
  8
0
100
AcDbLine
 10
21.2887615641176
 20
13.21661308521803
 30
0.0
 11
22.18332099660226
 21
13.21661308521803
 31
0.0
  0
INSERT
  5
1ABE
330
1F
100
AcDbEntity
  8
0
100
AcDbBlockReference
  2
MARKINS
 10
110.4296491324215
 20
11.74032404637578
 30
0.0
 41
0.25
 42
0.25
 43
0.25
  0
TEXT
  5
1AC0
330
1F
100
AcDbEntity
  8
TEXT
100
AcDbText
 10
11.09115578626826
 20
6.441901464728985
 30
0.0
 40
0.10546875
  1
REDUCED PRESSURE PRINCIPLE ASSEMBLY
  7
ROMANS
 72
     1
 11
12.81883435769683
 21
6.494635839728985
 31
0.0
100
AcDbText
 73
     2
  0
TEXT
  5
1AC2
330
1F
100
AcDbEntity
  8
TEXT
100
AcDbText
 10
11.35482766126826
 20
6.23518966020954
 30
0.0
 40
0.10546875
  1
OUTDOOR HORIZONTAL INSTALLATION
  7
ROMANS
 72
     1
 11
12.80878971483969
 21
6.28792403520954
 31
0.0
100
AcDbText
 73
     2
  0
TEXT
  5
1E72
330
1F
100
AcDbEntity
  8
TEXT
100
AcDbText
 10
10.83091856158176
 20
6.87555340845347
 30
0.0
 40
0.2109375
  1
WILKINS MODEL 975XLMS
  7
ROMANS
 72
     1
 11
12.86495874015319
 21
6.98102215845347
 31
0.0
100
AcDbText
 73
     2
  0
TEXT
  5
2458
330
1F
100
AcDbEntity
  8
TEXT
100
AcDbText
 10
12.07962955876547
 20
6.665367797714591
 30
0.0
 40
0.10546875
  1
(SMALLER SIZES)
  7
ROMANS
 72
     1
 11
12.76266527305118
 21
6.718102172714591
 31
0.0
100
AcDbText
 73
     2
  0
TEXT
  5
2459
330
1F
100
AcDbEntity
  8
TEXT
100
AcDbText
 10
24.68446175352708
 20
6.665367797714591
 30
0.0
 40
0.10546875
  1
(SMALLER SIZES)
  7
ROMANS
 72
     1
 11
25.3674974678128
 21
6.718102172714591
 31
0.0
100
AcDbText
 73
     2
  0
TEXT
  5
245A
330
1F
100
AcDbEntity
  8
TEXT
100
AcDbText
 10
23.95965985602987
 20
6.23518966020954
 30
0.0
 40
0.10546875
  1
OUTDOOR HORIZONTAL INSTALLATION
  7
ROMANS
 72
     1
 11
25.4136219096013
 21
6.28792403520954
 31
0.0
100
AcDbText
 73
     2
  0
TEXT
  5
245B
330
1F
100
AcDbEntity
  8
TEXT
100
AcDbText
 10
23.69598798102988
 20
6.441901464728985
 30
0.0
 40
0.10546875
  1
REDUCED PRESSURE PRINCIPLE ASSEMBLY
  7
ROMANS
 72
     1
 11
25.42366655245845
 21
6.494635839728985
 31
0.0
100
AcDbText
 73
     2
  0
TEXT
  5
245C
330
1F
100
AcDbEntity
  8
TEXT
100
AcDbText
 10
23.43575075634338
 20
6.87555340845347
 30
0.0
 40
0.2109375
  1
WILKINS MODEL 975XLMS
  7
ROMANS
 72
     1
 11
25.46979093491481
 21
6.98102215845347
 31
0.0
100
AcDbText
 73
     2
  0
LINE
  5
245D
330
1F
100
AcDbEntity
  8
0
100
AcDbLine
 10
24.40042071731105
 20
12.98845007443667
 30
0.0
 11
24.40040903903005
 21
12.751168747961
 31
0.0
  0
ENDSEC
  0
SECTION
  2
OBJECTS
  0
DICTIONARY
  5
C
330
0
100
AcDbDictionary
  3
ACAD_GROUP
350
D
  3
ACAD_LAYOUT
350
1A
  3
ACAD_MLINESTYLE
350
17
  3
ACAD_PLOTSETTINGS
350
19
  3
ACAD_PLOTSTYLENAME
350
E
  3
ACDBHEADERROUNDTRIPXREC
350
27D9
  3
ACDBVARIABLEDICTIONARY
350
178
  0
DICTIONARY
  5
27FB
330
1F
100
AcDbDictionary
280
     1
  3
ACAD_LAYOUTSELFREF
360
27FC
  0
DICTIONARY
  5
27F9
330
1B
100
AcDbDictionary
280
     1
  3
ACAD_LAYOUTSELFREF
360
27FA
  0
DICTIONARY
  5
D
102
{ACAD_REACTORS
330
C
102
}
330
C
100
AcDbDictionary
  0
DICTIONARY
  5
1A
102
{ACAD_REACTORS
330
C
102
}
330
C
100
AcDbDictionary
  0
DICTIONARY
  5
17
102
{ACAD_REACTORS
330
C
102
}
330
C
100
AcDbDictionary
  3
STANDARD
350
18
  0
DICTIONARY
  5
19
102
{ACAD_REACTORS
330
C
102
}
330
C
100
AcDbDictionary
  0
ACDBDICTIONARYWDFLT
  5
E
102
{ACAD_REACTORS
330
C
102
}
330
C
100
AcDbDictionary
281
     1
  3
Normal
350
F
100
AcDbDictionaryWithDefault
340
F
  0
DICTIONARY
  5
27D9
102
{ACAD_REACTORS
330
C
102
}
330
C
100
AcDbDictionary
  3
CEPSNTYPE
350
27E3
  3
FINGERPRINTGUID
350
27E4
  3
HYPERLINKBASE
350
27DC
  3
INSUNITS
350
27E2
  3
LAYOUTDICT
350
27DE
  3
LWETCUNION
350
27E1
  3
PLOTSETDICT
350
27DF
  3
PLOTSTYLNAMDICT
350
27E0
  3
PSVPSCALE
350
27E6
  3
PUCSBASE
350
27E9
  3
PUCSORGBACK
350
27EF
  3
PUCSORGBOTTOM
350
27EB
  3
PUCSORGFRONT
350
27EE
  3
PUCSORGLEFT
350
27EC
  3
PUCSORGRIGHT
350
27ED
  3
PUCSORGTOP
350
27EA
  3
PUCSORTHOREF
350
27E7
  3
PUCSORTHOVIEW
350
27E8
  3
STYLESHEET
350
27DD
  3
TSTACKALIGN
350
27DA
  3
TSTACKSIZE
350
27DB
  3
UCSBASE
350
27F2
  3
UCSORGBACK
350
27F8
  3
UCSORGBOTTOM
350
27F4
  3
UCSORGFRONT
350
27F7
  3
UCSORGLEFT
350
27F5
  3
UCSORGRIGHT
350
27F6
  3
UCSORGTOP
350
27F3
  3
UCSORTHOREF
350
27F0
  3
UCSORTHOVIEW
350
27F1
  3
VERSIONGUID
350
27E5
  0
DICTIONARY
  5
178
102
{ACAD_REACTORS
330
C
102
}
330
C
100
AcDbDictionary
  3
DIMASSOC
350
E65
  3
SORTENTS
350
179
  0
XRECORD
  5
27FC
102
{ACAD_REACTORS
330
27FB
102
}
330
27FB
100
AcDbXrecord
340
1F
  0
XRECORD
  5
27FA
102
{ACAD_REACTORS
330
27F9
102
}
330
27F9
100
AcDbXrecord
340
1B
  0
MLINESTYLE
  5
18
102
{ACAD_REACTORS
330
17
102
}
330
17
100
AcDbMlineStyle
  2
STANDARD
 70
     0
  3

 62
   256
 51
90.0
 52
90.0
 71
     2
 49
0.5
 62
   256
  6
BYLAYER
 49
-0.5
 62
   256
  6
BYLAYER
  0
ACDBPLACEHOLDER
  5
F
102
{ACAD_REACTORS
330
E
102
}
330
E
100
AcDbPlaceHolder
280
     0
  0
XRECORD
  5
27E3
102
{ACAD_REACTORS
330
27D9
102
}
330
27D9
100
AcDbXrecord
 90
        0
  0
XRECORD
  5
27E4
102
{ACAD_REACTORS
330
27D9
102
}
330
27D9
100
AcDbXrecord
  1
{FDEAD576-A652-11D2-9A35-0060089B3A3F}
  0
XRECORD
  5
27DC
102
{ACAD_REACTORS
330
27D9
102
}
330
27D9
100
AcDbXrecord
  1

  0
XRECORD
  5
27E2
102
{ACAD_REACTORS
330
27D9
102
}
330
27D9
100
AcDbXrecord
 90
        1
  0
XRECORD
  5
27DE
102
{ACAD_REACTORS
330
27D9
102
}
330
27D9
100
AcDbXrecord
340
1A
  0
XRECORD
  5
27E1
102
{ACAD_REACTORS
330
27D9
102
}
330
27D9
100
AcDbXrecord
 90
    11805
  0
XRECORD
  5
27DF
102
{ACAD_REACTORS
330
27D9
102
}
330
27D9
100
AcDbXrecord
340
19
  0
XRECORD
  5
27E0
102
{ACAD_REACTORS
330
27D9
102
}
330
27D9
100
AcDbXrecord
340
E
  0
XRECORD
  5
27E6
102
{ACAD_REACTORS
330
27D9
102
}
330
27D9
100
AcDbXrecord
 40
0.0
  0
XRECORD
  5
27E9
102
{ACAD_REACTORS
330
27D9
102
}
330
27D9
100
AcDbXrecord
340
0
  0
XRECORD
  5
27EF
102
{ACAD_REACTORS
330
27D9
102
}
330
27D9
100
AcDbXrecord
 10
0.0
 20
0.0
 30
0.0
  0
XRECORD
  5
27EB
102
{ACAD_REACTORS
330
27D9
102
}
330
27D9
100
AcDbXrecord
 10
0.0
 20
0.0
 30
0.0
  0
XRECORD
  5
27EE
102
{ACAD_REACTORS
330
27D9
102
}
330
27D9
100
AcDbXrecord
 10
0.0
 20
0.0
 30
0.0
  0
XRECORD
  5
27EC
102
{ACAD_REACTORS
330
27D9
102
}
330
27D9
100
AcDbXrecord
 10
0.0
 20
0.0
 30
0.0
  0
XRECORD
  5
27ED
102
{ACAD_REACTORS
330
27D9
102
}
330
27D9
100
AcDbXrecord
 10
0.0
 20
0.0
 30
0.0
  0
XRECORD
  5
27EA
102
{ACAD_REACTORS
330
27D9
102
}
330
27D9
100
AcDbXrecord
 10
0.0
 20
0.0
 30
0.0
  0
XRECORD
  5
27E7
102
{ACAD_REACTORS
330
27D9
102
}
330
27D9
100
AcDbXrecord
340
0
  0
XRECORD
  5
27E8
102
{ACAD_REACTORS
330
27D9
102
}
330
27D9
100
AcDbXrecord
 70
     0
  0
XRECORD
  5
27DD
102
{ACAD_REACTORS
330
27D9
102
}
330
27D9
100
AcDbXrecord
  1
WILKINS.ctb
  0
XRECORD
  5
27DA
102
{ACAD_REACTORS
330
27D9
102
}
330
27D9
100
AcDbXrecord
 90
        1
  0
XRECORD
  5
27DB
102
{ACAD_REACTORS
330
27D9
102
}
330
27D9
100
AcDbXrecord
 90
       70
  0
XRECORD
  5
27F2
102
{ACAD_REACTORS
330
27D9
102
}
330
27D9
100
AcDbXrecord
340
0
  0
XRECORD
  5
27F8
102
{ACAD_REACTORS
330
27D9
102
}
330
27D9
100
AcDbXrecord
 10
0.0
 20
0.0
 30
0.0
  0
XRECORD
  5
27F4
102
{ACAD_REACTORS
330
27D9
102
}
330
27D9
100
AcDbXrecord
 10
0.0
 20
0.0
 30
0.0
  0
XRECORD
  5
27F7
102
{ACAD_REACTORS
330
27D9
102
}
330
27D9
100
AcDbXrecord
 10
0.0
 20
0.0
 30
0.0
  0
XRECORD
  5
27F5
102
{ACAD_REACTORS
330
27D9
102
}
330
27D9
100
AcDbXrecord
 10
0.0
 20
0.0
 30
0.0
  0
XRECORD
  5
27F6
102
{ACAD_REACTORS
330
27D9
102
}
330
27D9
100
AcDbXrecord
 10
0.0
 20
0.0
 30
0.0
  0
XRECORD
  5
27F3
102
{ACAD_REACTORS
330
27D9
102
}
330
27D9
100
AcDbXrecord
 10
0.0
 20
0.0
 30
0.0
  0
XRECORD
  5
27F0
102
{ACAD_REACTORS
330
27D9
102
}
330
27D9
100
AcDbXrecord
340
0
  0
XRECORD
  5
27F1
102
{ACAD_REACTORS
330
27D9
102
}
330
27D9
100
AcDbXrecord
 70
     0
  0
XRECORD
  5
27E5
102
{ACAD_REACTORS
330
27D9
102
}
330
27D9
100
AcDbXrecord
  1
{CC73AC7E-6FFB-4DF8-B679-3A51513E2DA2}
  0
DICTIONARYVAR
  5
E65
102
{ACAD_REACTORS
330
178
102
}
330
178
100
DictionaryVariables
280
     0
  1
1
  0
DICTIONARYVAR
  5
179
102
{ACAD_REACTORS
330
178
102
}
330
178
100
DictionaryVariables
280
     0
  1
96
  0
ENDSEC
  0
EOF
