  0
SECTION
  2
HEADER
  9
$ACADVER
  1
AC1014
  9
$ACADMAINTVER
 70
     9
  9
$DWGCODEPAGE
  3
ANSI_1252
  9
$INSBASE
 10
0.0
 20
0.0
 30
0.0
  9
$EXTMIN
 10
9.205925071851737
 20
1.765600636421702
 30
-0.0000000349181948
  9
$EXTMAX
 10
25.03619391347304
 20
20.35788579010158
 30
0.0000000814935746
  9
$LIMMIN
 10
0.0
 20
0.0
  9
$LIMMAX
 10
31.5
 20
20.8
  9
$ORTHOMODE
 70
     0
  9
$REGENMODE
 70
     1
  9
$FILLMODE
 70
     1
  9
$QTEXTMODE
 70
     0
  9
$MIRRTEXT
 70
     0
  9
$DRAGMODE
 70
     2
  9
$LTSCALE
 40
1.0
  9
$OSMODE
 70
    37
  9
$ATTMODE
 70
     1
  9
$TEXTSIZE
 40
0.125
  9
$TRACEWID
 40
0.05
  9
$TEXTSTYLE
  7
ROMANS
  9
$CLAYER
  8
0
  9
$CELTYPE
  6
BYLAYER
  9
$CECOLOR
 62
   256
  9
$CELTSCALE
 40
1.0
  9
$DELOBJ
 70
     1
  9
$DISPSILH
 70
     0
  9
$DIMSCALE
 40
1.0
  9
$DIMASZ
 40
0.125
  9
$DIMEXO
 40
0.0625
  9
$DIMDLI
 40
0.38
  9
$DIMRND
 40
0.0
  9
$DIMDLE
 40
0.0
  9
$DIMEXE
 40
0.09
  9
$DIMTP
 40
0.0
  9
$DIMTM
 40
0.0
  9
$DIMTXT
 40
0.125
  9
$DIMCEN
 40
0.04
  9
$DIMTSZ
 40
0.0
  9
$DIMTOL
 70
     0
  9
$DIMLIM
 70
     0
  9
$DIMTIH
 70
     1
  9
$DIMTOH
 70
     1
  9
$DIMSE1
 70
     0
  9
$DIMSE2
 70
     0
  9
$DIMTAD
 70
     0
  9
$DIMZIN
 70
     0
  9
$DIMBLK
  1

  9
$DIMASO
 70
     1
  9
$DIMSHO
 70
     1
  9
$DIMPOST
  1

  9
$DIMAPOST
  1

  9
$DIMALT
 70
     0
  9
$DIMALTD
 70
     2
  9
$DIMALTF
 40
25.4
  9
$DIMLFAC
 40
1.0
  9
$DIMTOFL
 70
     0
  9
$DIMTVP
 40
0.0
  9
$DIMTIX
 70
     0
  9
$DIMSOXD
 70
     0
  9
$DIMSAH
 70
     0
  9
$DIMBLK1
  1

  9
$DIMBLK2
  1

  9
$DIMSTYLE
  2
STANDARD
  9
$DIMCLRD
 70
   256
  9
$DIMCLRE
 70
   256
  9
$DIMCLRT
 70
     3
  9
$DIMTFAC
 40
1.0
  9
$DIMGAP
 40
0.09
  9
$DIMJUST
 70
     0
  9
$DIMSD1
 70
     0
  9
$DIMSD2
 70
     0
  9
$DIMTOLJ
 70
     1
  9
$DIMTZIN
 70
     0
  9
$DIMALTZ
 70
     0
  9
$DIMALTTZ
 70
     0
  9
$DIMFIT
 70
     3
  9
$DIMUPT
 70
     1
  9
$DIMUNIT
 70
     2
  9
$DIMDEC
 70
     3
  9
$DIMTDEC
 70
     3
  9
$DIMALTU
 70
     2
  9
$DIMALTTD
 70
     2
  9
$DIMTXSTY
  7
STANDARD
  9
$DIMAUNIT
 70
     0
  9
$LUNITS
 70
     2
  9
$LUPREC
 70
     3
  9
$SKETCHINC
 40
0.05
  9
$FILLETRAD
 40
0.125
  9
$AUNITS
 70
     0
  9
$AUPREC
 70
     0
  9
$MENU
  1
.
  9
$ELEVATION
 40
0.0
  9
$PELEVATION
 40
0.0
  9
$THICKNESS
 40
0.0
  9
$LIMCHECK
 70
     0
  9
$BLIPMODE
 70
     0
  9
$CHAMFERA
 40
0.5
  9
$CHAMFERB
 40
0.5
  9
$CHAMFERC
 40
1.0
  9
$CHAMFERD
 40
0.0
  9
$SKPOLY
 70
     0
  9
$TDCREATE
 40
2452465.456964815
  9
$TDUPDATE
 40
2452509.681502534
  9
$TDINDWG
 40
0.0155476157
  9
$TDUSRTIMER
 40
0.0155476157
  9
$USRTIMER
 70
     1
  9
$ANGBASE
 50
0.0
  9
$ANGDIR
 70
     0
  9
$PDMODE
 70
     0
  9
$PDSIZE
 40
0.0
  9
$PLINEWID
 40
0.0
  9
$COORDS
 70
     0
  9
$SPLFRAME
 70
     0
  9
$SPLINETYPE
 70
     6
  9
$SPLINESEGS
 70
    64
  9
$ATTDIA
 70
     0
  9
$ATTREQ
 70
     1
  9
$HANDLING
 70
 22529
  9
$HANDSEED
  5
21B2
  9
$SURFTAB1
 70
    32
  9
$SURFTAB2
 70
    32
  9
$SURFTYPE
 70
     6
  9
$SURFU
 70
     6
  9
$SURFV
 70
     6
  9
$UCSNAME
  2

  9
$UCSORG
 10
0.0
 20
0.0
 30
0.0
  9
$UCSXDIR
 10
1.0
 20
0.0
 30
0.0
  9
$UCSYDIR
 10
0.0
 20
1.0
 30
0.0
  9
$PUCSNAME
  2

  9
$PUCSORG
 10
0.0
 20
0.0
 30
0.0
  9
$PUCSXDIR
 10
1.0
 20
0.0
 30
0.0
  9
$PUCSYDIR
 10
0.0
 20
1.0
 30
0.0
  9
$USERI1
 70
     0
  9
$USERI2
 70
     0
  9
$USERI3
 70
     0
  9
$USERI4
 70
     0
  9
$USERI5
 70
     0
  9
$USERR1
 40
0.0
  9
$USERR2
 40
0.0
  9
$USERR3
 40
0.0
  9
$USERR4
 40
0.0
  9
$USERR5
 40
0.0
  9
$WORLDVIEW
 70
     1
  9
$SHADEDGE
 70
     3
  9
$SHADEDIF
 70
    70
  9
$TILEMODE
 70
     1
  9
$MAXACTVP
 70
    64
  9
$PINSBASE
 10
0.0
 20
0.0
 30
0.0
  9
$PLIMCHECK
 70
     0
  9
$PEXTMIN
 10
1.000000000000000E+20
 20
1.000000000000000E+20
 30
1.000000000000000E+20
  9
$PEXTMAX
 10
-1.000000000000000E+20
 20
-1.000000000000000E+20
 30
-1.000000000000000E+20
  9
$PLIMMIN
 10
0.0
 20
0.0
  9
$PLIMMAX
 10
12.0
 20
9.0
  9
$UNITMODE
 70
     0
  9
$VISRETAIN
 70
     1
  9
$PLINEGEN
 70
     0
  9
$PSLTSCALE
 70
     1
  9
$TREEDEPTH
 70
  3020
  9
$PICKSTYLE
 70
     1
  9
$CMLSTYLE
  2
STANDARD
  9
$CMLJUST
 70
     0
  9
$CMLSCALE
 40
1.0
  9
$PROXYGRAPHICS
 70
     1
  9
$MEASUREMENT
 70
     0
  0
ENDSEC
  0
SECTION
  2
CLASSES
  0
CLASS
  1
ACDBDICTIONARYWDFLT
  2
AcDbDictionaryWithDefault
  3
AutoCAD 2000
 90
        0
280
     0
281
     0
  0
CLASS
  1
ACDBPLACEHOLDER
  2
AcDbPlaceHolder
  3
AutoCAD 2000
 90
        0
280
     0
281
     0
  0
CLASS
  1
LAYOUT
  2
AcDbLayout
  3
AutoCAD 2000
 90
        0
280
     0
281
     0
  0
CLASS
  1
DICTIONARYVAR
  2
AcDbDictionaryVar
  3
AutoCAD 2000
 90
        0
280
     0
281
     0
  0
CLASS
  1
LONG_TRANSACTION
  2
AcDbLongTransaction
  3
AutoCAD 2000
 90
        0
280
     0
281
     0
  0
CLASS
  1
LWPOLYLINE
  2
AcDbPolyline
  3
AutoCAD 2000
 90
        0
280
     0
281
     1
  0
CLASS
  1
HATCH
  2
AcDbHatch
  3
AutoCAD 2000
 90
        0
280
     0
281
     1
  0
CLASS
  1
XRECORD
  2
AcDbXrecord
  3
AutoCAD 2000
 90
        0
280
     0
281
     0
  0
ENDSEC
  0
SECTION
  2
TABLES
  0
TABLE
  2
VPORT
  5
8
330
0
100
AcDbSymbolTable
 70
     2
  0
VPORT
  5
218B
330
8
100
AcDbSymbolTableRecord
100
AcDbViewportTableRecord
  2
*ACTIVE
 70
     0
 10
0.0
 20
0.0
 11
1.0
 21
1.0
 12
15.75
 22
10.39999999999999
 13
0.0
 23
0.0
 14
0.5
 24
0.5
 15
5.0
 25
5.0
 16
0.0
 26
0.0
 36
1.0
 17
0.0
 27
0.0
 37
0.0
 40
21.11199999999999
 41
1.781954887218045
 42
50.0
 43
0.0
 44
0.0
 50
0.0
 51
0.0
 71
     0
 72
 15000
 73
     1
 74
     2
 75
     0
 76
     0
 77
     0
 78
     0
  0
ENDTAB
  0
TABLE
  2
LTYPE
  5
5
330
0
100
AcDbSymbolTable
 70
     2
  0
LTYPE
  5
14
330
5
100
AcDbSymbolTableRecord
100
AcDbLinetypeTableRecord
  2
BYBLOCK
 70
     0
  3

 72
    65
 73
     0
 40
0.0
  0
LTYPE
  5
15
330
5
100
AcDbSymbolTableRecord
100
AcDbLinetypeTableRecord
  2
BYLAYER
 70
     0
  3

 72
    65
 73
     0
 40
0.0
  0
LTYPE
  5
16
330
5
100
AcDbSymbolTableRecord
100
AcDbLinetypeTableRecord
  2
CONTINUOUS
 70
     0
  3
Solid line
 72
    65
 73
     0
 40
0.0
  0
ENDTAB
  0
TABLE
  2
LAYER
  5
2
330
0
100
AcDbSymbolTable
 70
    10
  0
LAYER
  5
10
330
2
100
AcDbSymbolTableRecord
100
AcDbLayerTableRecord
  2
0
 70
     0
 62
     7
  6
CONTINUOUS
  0
LAYER
  5
62
330
2
100
AcDbSymbolTableRecord
100
AcDbLayerTableRecord
  2
OBJECT1
 70
     0
 62
     7
  6
CONTINUOUS
  0
LAYER
  5
63
330
2
100
AcDbSymbolTableRecord
100
AcDbLayerTableRecord
  2
OBJECT2
 70
     0
 62
     8
  6
CONTINUOUS
  0
LAYER
  5
65
330
2
100
AcDbSymbolTableRecord
100
AcDbLayerTableRecord
  2
TEXT
 70
     0
 62
     7
  6
CONTINUOUS
  0
ENDTAB
  0
TABLE
  2
STYLE
  5
3
330
0
100
AcDbSymbolTable
 70
     4
  0
STYLE
  5
11
330
3
100
AcDbSymbolTableRecord
100
AcDbTextStyleTableRecord
  2
STANDARD
 70
     0
 40
0.0
 41
1.0
 50
0.0
 71
     0
 42
0.125
  3
romans.shx
  4

  0
STYLE
  5
B3
330
3
100
AcDbSymbolTableRecord
100
AcDbTextStyleTableRecord
  2
ROMANS
 70
     0
 40
0.0
 41
1.0
 50
0.0
 71
     0
 42
0.125
  3
romans.shx
  4

  0
ENDTAB
  0
TABLE
  2
VIEW
  5
6
330
0
100
AcDbSymbolTable
 70
     0
  0
ENDTAB
  0
TABLE
  2
UCS
  5
7
330
0
100
AcDbSymbolTable
 70
     0
  0
ENDTAB
  0
TABLE
  2
APPID
  5
9
330
0
100
AcDbSymbolTable
 70
     1
  0
APPID
  5
12
330
9
100
AcDbSymbolTableRecord
100
AcDbRegAppTableRecord
  2
ACAD
 70
     0
  0
ENDTAB
  0
TABLE
  2
DIMSTYLE
  5
A
330
0
100
AcDbSymbolTable
 70
     4
  0
DIMSTYLE
105
99
330
A
100
AcDbSymbolTableRecord
100
AcDbDimStyleTableRecord
  2
STANDARD
 70
     0
  3

  4

  5

  6

  7

 40
1.0
 41
0.125
 42
0.0625
 43
0.38
 44
0.09
 45
0.0
 46
0.0
 47
0.0
 48
0.0
140
0.125
141
0.04
142
0.0
143
25.4
144
1.0
145
0.0
146
1.0
147
0.09
 71
     0
 72
     0
 73
     1
 74
     1
 75
     0
 76
     0
 77
     0
 78
     0
170
     0
171
     2
172
     0
173
     0
174
     0
175
     0
176
   256
177
   256
178
     3
270
     2
271
     3
272
     3
273
     2
274
     2
340
11
275
     0
280
     0
281
     0
282
     0
283
     1
284
     0
285
     0
286
     0
287
     3
288
     1
  0
ENDTAB
  0
TABLE
  2
BLOCK_RECORD
  5
1
330
0
100
AcDbSymbolTable
 70
     7
  0
BLOCK_RECORD
  5
1F
102
{ACAD_XDICTIONARY
360
21AE
102
}
330
1
100
AcDbSymbolTableRecord
100
AcDbBlockTableRecord
  2
*MODEL_SPACE
  0
BLOCK_RECORD
  5
1B
102
{ACAD_XDICTIONARY
360
21AC
102
}
330
1
100
AcDbSymbolTableRecord
100
AcDbBlockTableRecord
  2
*PAPER_SPACE
  0
BLOCK_RECORD
  5
6B
330
1
100
AcDbSymbolTableRecord
100
AcDbBlockTableRecord
  2
MARKINS
  0
BLOCK_RECORD
  5
277
330
1
100
AcDbSymbolTableRecord
100
AcDbBlockTableRecord
  2
SPECSHEET_FLOWARROW
  0
BLOCK_RECORD
  5
283
330
1
100
AcDbSymbolTableRecord
100
AcDbBlockTableRecord
  2
*X3
  0
BLOCK_RECORD
  5
290
330
1
100
AcDbSymbolTableRecord
100
AcDbBlockTableRecord
  2
*X4
  0
BLOCK_RECORD
  5
46F
330
1
100
AcDbSymbolTableRecord
100
AcDbBlockTableRecord
  2
*X5
  0
ENDTAB
  0
ENDSEC
  0
SECTION
  2
BLOCKS
  0
BLOCK
  5
20
330
1F
100
AcDbEntity
  8
0
100
AcDbBlockBegin
  2
*MODEL_SPACE
 70
     0
 10
0.0
 20
0.0
 30
0.0
  3
*MODEL_SPACE
  1

  0
ENDBLK
  5
21
330
1F
100
AcDbEntity
  8
0
100
AcDbBlockEnd
  0
BLOCK
  5
1C
330
1B
100
AcDbEntity
 67
     1
  8
0
100
AcDbBlockBegin
  2
*PAPER_SPACE
 70
     0
 10
0.0
 20
0.0
 30
0.0
  3
*PAPER_SPACE
  1

  0
ENDBLK
  5
1D
330
1B
100
AcDbEntity
 67
     1
  8
0
100
AcDbBlockEnd
  0
BLOCK
  5
6C
330
6B
100
AcDbEntity
  8
0
100
AcDbBlockBegin
  2
MARKINS
 70
     0
 10
0.0
 20
0.0
 30
0.0
  3
MARKINS
  1

  0
ENDBLK
  5
6D
330
6B
100
AcDbEntity
  8
0
100
AcDbBlockEnd
  0
BLOCK
  5
281
330
277
100
AcDbEntity
  8
0
100
AcDbBlockBegin
  2
SPECSHEET_FLOWARROW
 70
     0
 10
0.0
 20
0.0
 30
0.0
  3
SPECSHEET_FLOWARROW
  1

  0
LINE
  5
278
330
277
100
AcDbEntity
  8
OBJECT1
100
AcDbLine
 10
-0.3883432548078076
 20
-4.226471473879882
 30
0.0
 11
-0.3883432548079213
 21
-1.384666629104103
 31
0.0
  0
LINE
  5
279
330
277
100
AcDbEntity
  8
OBJECT1
100
AcDbLine
 10
0.3883432548076939
 20
-4.226471473879882
 30
0.0
 11
0.3883432548077508
 21
-1.384666629103975
 31
0.0
  0
LINE
  5
27A
330
277
100
AcDbEntity
  8
OBJECT1
100
AcDbLine
 10
-0.3883432548079213
 20
-4.226471473879882
 30
0.0
 11
0.3883432548076939
 21
-4.226471473879882
 31
0.0
  0
LINE
  5
27B
330
277
100
AcDbEntity
  8
OBJECT1
100
AcDbLine
 10
0.0
 20
0.0
 30
0.0
 11
-1.359203679482106
 21
-1.359203679482106
 31
0.0
  0
LINE
  5
27C
330
277
100
AcDbEntity
  8
OBJECT1
100
AcDbLine
 10
-0.3883432548079213
 20
-1.384666629104174
 30
0.0
 11
-1.359203679482106
 21
-2.355527053778388
 31
0.0
  0
LINE
  5
27D
330
277
100
AcDbEntity
  8
OBJECT1
100
AcDbLine
 10
-1.359203679482106
 20
-2.355527053778374
 30
0.0
 11
-1.359203679482106
 21
-1.35920367948205
 31
0.0
  0
LINE
  5
27E
330
277
100
AcDbEntity
  8
OBJECT1
100
AcDbLine
 10
1.359203679482106
 20
-2.355527053778359
 30
0.0
 11
1.359203679482106
 21
-1.359203679482078
 31
0.0
  0
LINE
  5
27F
330
277
100
AcDbEntity
  8
OBJECT1
100
AcDbLine
 10
0.0
 20
0.0
 30
0.0
 11
1.35920367948205
 21
-1.359203679482106
 31
0.0
  0
LINE
  5
280
330
277
100
AcDbEntity
  8
OBJECT1
100
AcDbLine
 10
0.3883432548077508
 20
-1.384666629103989
 30
0.0
 11
1.35920367948205
 21
-2.355527053778317
 31
0.0
  0
ENDBLK
  5
282
330
277
100
AcDbEntity
  8
0
100
AcDbBlockEnd
  0
BLOCK
  5
28E
330
283
100
AcDbEntity
  8
0
100
AcDbBlockBegin
  2
*X3
 70
     1
 10
0.0
 20
0.0
 30
0.0
  3
*X3
  1

  0
LINE
  5
284
330
283
100
AcDbEntity
  8
0
 62
     0
100
AcDbLine
 10
45.85712904788073
 20
-6.87500000000008
 30
0.0
 11
47.76921186759014
 21
-6.875000000000084
 31
0.0
  0
LINE
  5
285
330
283
100
AcDbEntity
  8
0
 62
     0
100
AcDbLine
 10
45.85712904788073
 20
-6.25000000000008
 30
0.0
 11
47.76921186759014
 21
-6.250000000000084
 31
0.0
  0
LINE
  5
286
330
283
100
AcDbEntity
  8
0
 62
     0
100
AcDbLine
 10
45.85712904788073
 20
-5.62500000000008
 30
0.0
 11
47.76921186759014
 21
-5.625000000000084
 31
0.0
  0
LINE
  5
287
330
283
100
AcDbEntity
  8
0
 62
     0
100
AcDbLine
 10
45.85712904788073
 20
-5.00000000000008
 30
0.0
 11
47.76921186759014
 21
-5.000000000000084
 31
0.0
  0
LINE
  5
288
330
283
100
AcDbEntity
  8
0
 62
     0
100
AcDbLine
 10
45.85712904788073
 20
-4.37500000000008
 30
0.0
 11
47.76921186759014
 21
-4.375000000000084
 31
0.0
  0
LINE
  5
289
330
283
100
AcDbEntity
  8
0
 62
     0
100
AcDbLine
 10
45.85712904788073
 20
-7.500000000000079
 30
0.0
 11
47.76921186759014
 21
-7.500000000000083
 31
0.0
  0
LINE
  5
28A
330
283
100
AcDbEntity
  8
0
 62
     0
100
AcDbLine
 10
45.85712904788073
 20
-8.125000000000079
 30
0.0
 11
47.76921186759014
 21
-8.125000000000083
 31
0.0
  0
LINE
  5
28B
330
283
100
AcDbEntity
  8
0
 62
     0
100
AcDbLine
 10
45.85712904788073
 20
-8.750000000000079
 30
0.0
 11
47.76921186759014
 21
-8.750000000000083
 31
0.0
  0
LINE
  5
28C
330
283
100
AcDbEntity
  8
0
 62
     0
100
AcDbLine
 10
45.85712904788073
 20
-9.375000000000079
 30
0.0
 11
47.76921186759014
 21
-9.375000000000083
 31
0.0
  0
LINE
  5
28D
330
283
100
AcDbEntity
  8
0
 62
     0
100
AcDbLine
 10
45.85712904788073
 20
-10.00000000000007
 30
0.0
 11
47.76921186759014
 21
-10.00000000000008
 31
0.0
  0
ENDBLK
  5
28F
330
283
100
AcDbEntity
  8
0
100
AcDbBlockEnd
  0
BLOCK
  5
46D
330
290
100
AcDbEntity
  8
0
100
AcDbBlockBegin
  2
*X4
 70
     1
 10
0.0
 20
0.0
 30
0.0
  3
*X4
  1

  0
LINE
  5
291
330
290
100
AcDbEntity
  8
0
 62
     0
100
AcDbLine
 10
-101.2276997994518
 20
-5.944783103317204
 30
0.0
 11
-100.9866544458194
 21
-5.657516437147587
 31
0.0
  0
LINE
  5
292
330
290
100
AcDbEntity
  8
0
 62
     0
100
AcDbLine
 10
-98.33515555586245
 20
-2.497583109281803
 30
0.0
 11
-98.09411020223
 21
-2.210316443112186
 31
0.0
  0
LINE
  5
293
330
290
100
AcDbEntity
  8
0
 62
     0
100
AcDbLine
 10
-95.44261131227303
 20
0.9496168847535976
 30
0.0
 11
-95.20156595864056
 21
1.236883550923214
 31
0.0
  0
LINE
  5
294
330
290
100
AcDbEntity
  8
0
 62
     0
100
AcDbLine
 10
-92.55006706868361
 20
4.396816878788998
 30
0.0
 11
-92.30902171505114
 21
4.684083544958615
 31
0.0
  0
LINE
  5
295
330
290
100
AcDbEntity
  8
0
 62
     0
100
AcDbLine
 10
-97.64139888644812
 20
-6.258543778230168
 30
0.0
 11
-97.40035353281568
 21
-5.971277112060551
 31
0.0
  0
LINE
  5
296
330
290
100
AcDbEntity
  8
0
 62
     0
100
AcDbLine
 10
-94.7488546428587
 20
-2.811343784194767
 30
0.0
 11
-94.50780928922624
 21
-2.52407711802515
 31
0.0
  0
LINE
  5
297
330
290
100
AcDbEntity
  8
0
 62
     0
100
AcDbLine
 10
-91.85631039926928
 20
0.6358562098406337
 30
0.0
 11
-91.61526504563681
 21
0.9231228760102503
 31
0.0
  0
LINE
  5
298
330
290
100
AcDbEntity
  8
0
 62
     0
100
AcDbLine
 10
-88.96376615567985
 20
4.083056203876034
 30
0.0
 11
-88.72272080204739
 21
4.370322870045651
 31
0.0
  0
LINE
  5
299
330
290
100
AcDbEntity
  8
0
 62
     0
100
AcDbLine
 10
-94.05509797344436
 20
-6.572304453143154
 30
0.0
 11
-93.81405261981191
 21
-6.285037786973536
 31
0.0
  0
LINE
  5
29A
330
290
100
AcDbEntity
  8
0
 62
     0
100
AcDbLine
 10
-91.16255372985493
 20
-3.125104459107752
 30
0.0
 11
-90.92150837622247
 21
-2.837837792938135
 31
0.0
  0
LINE
  5
29B
330
290
100
AcDbEntity
  8
0
 62
     0
100
AcDbLine
 10
-88.27000948626551
 20
0.3220955349276483
 30
0.0
 11
-88.02896413263304
 21
0.6093622010972651
 31
0.0
  0
LINE
  5
29C
330
290
100
AcDbEntity
  8
0
 62
     0
100
AcDbLine
 10
-87.57625281685115
 20
-3.438865134020739
 30
0.0
 11
-87.3352074632187
 21
-3.151598467851122
 31
0.0
  0
LINE
  5
29D
330
290
100
AcDbEntity
  8
0
 62
     0
100
AcDbLine
 10
-104.8140007124556
 20
-5.631022428404227
 30
0.0
 11
-104.5729553588232
 21
-5.34375576223461
 31
0.0
  0
LINE
  5
29E
330
290
100
AcDbEntity
  8
0
 62
     0
100
AcDbLine
 10
-101.9214564688662
 20
-2.183822434368825
 30
0.0
 11
-101.6804111152337
 21
-1.896555768199209
 31
0.0
  0
LINE
  5
29F
330
290
100
AcDbEntity
  8
0
 62
     0
100
AcDbLine
 10
-99.0289122252768
 20
1.263377559666575
 30
0.0
 11
-98.78786687164435
 21
1.550644225836192
 31
0.0
  0
LINE
  5
2A0
330
290
100
AcDbEntity
  8
0
 62
     0
100
AcDbLine
 10
-96.13636798168737
 20
4.710577553701976
 30
0.0
 11
-95.89532262805491
 21
4.997844219871593
 31
0.0
  0
LINE
  5
2A1
330
290
100
AcDbEntity
  8
0
 62
     0
100
AcDbLine
 10
-108.4003016254594
 20
-5.317261753491246
 30
0.0
 11
-108.1592562718269
 21
-5.029995087321629
 31
0.0
  0
LINE
  5
2A2
330
290
100
AcDbEntity
  8
0
 62
     0
100
AcDbLine
 10
-105.5077573818699
 20
-1.870061759455845
 30
0.0
 11
-105.2667120282375
 21
-1.582795093286228
 31
0.0
  0
LINE
  5
2A3
330
290
100
AcDbEntity
  8
0
 62
     0
100
AcDbLine
 10
-102.6152131382805
 20
1.577138234579556
 30
0.0
 11
-102.3741677846481
 21
1.864404900749173
 31
0.0
  0
LINE
  5
2A4
330
290
100
AcDbEntity
  8
0
 62
     0
100
AcDbLine
 10
-99.72266889469114
 20
5.024338228614957
 30
0.0
 11
-99.48162354105868
 21
5.311604894784574
 31
0.0
  0
LINE
  5
2A5
330
290
100
AcDbEntity
  8
0
 62
     0
100
AcDbLine
 10
-109.0940582948737
 20
-1.556301084542871
 30
0.0
 11
-108.8530129412412
 21
-1.269034418373254
 31
0.0
  0
LINE
  5
2A6
330
290
100
AcDbEntity
  8
0
 62
     0
100
AcDbLine
 10
-106.2015140512843
 20
1.890898909492529
 30
0.0
 11
-105.9604686976518
 21
2.178165575662146
 31
0.0
  0
LINE
  5
2A7
330
290
100
AcDbEntity
  8
0
 62
     0
100
AcDbLine
 10
-103.3089698076949
 20
5.338098903527931
 30
0.0
 11
-103.0679244540624
 21
5.625365569697548
 31
0.0
  0
LINE
  5
2A8
330
290
100
AcDbEntity
  8
0
 62
     0
100
AcDbLine
 10
-109.7878149642881
 20
2.204659584405507
 30
0.0
 11
-109.5467696106556
 21
2.491926250575124
 31
0.0
  0
LINE
  5
2A9
330
290
100
AcDbEntity
  8
0
 62
     0
100
AcDbLine
 10
-106.8952707206986
 20
5.651859578440908
 30
0.0
 11
-106.6542253670662
 21
5.939126244610525
 31
0.0
  0
LINE
  5
2AA
330
290
100
AcDbEntity
  8
0
 62
     0
100
AcDbLine
 10
-110.4741073343601
 20
5.974515858911252
 30
0.0
 11
-110.2405262800699
 21
6.252886919523503
 31
0.0
  0
LINE
  5
2AB
330
290
100
AcDbEntity
  8
0
 62
     0
100
AcDbLine
 10
-109.7878149709087
 20
2.204659553638523
 30
0.0
 11
-109.4889565614812
 21
2.178512830814225
 31
0.0
  0
LINE
  5
2AC
330
290
100
AcDbEntity
  8
0
 62
     0
100
AcDbLine
 10
-106.2015140577784
 20
1.890898879746954
 30
0.0
 11
-105.9026556483509
 21
1.864752156922656
 31
0.0
  0
LINE
  5
2AD
330
290
100
AcDbEntity
  8
0
 62
     0
100
AcDbLine
 10
-102.6152131446482
 20
1.577138205855384
 30
0.0
 11
-102.3163547352206
 21
1.550991483031087
 31
0.0
  0
LINE
  5
2AE
330
290
100
AcDbEntity
  8
0
 62
     0
100
AcDbLine
 10
-99.02891223151792
 20
1.263377531963815
 30
0.0
 11
-98.7300538220904
 21
1.237230809139518
 31
0.0
  0
LINE
  5
2AF
330
290
100
AcDbEntity
  8
0
 62
     0
100
AcDbLine
 10
-95.44261131838764
 20
0.9496168580722464
 30
0.0
 11
-95.1437529089601
 21
0.923470135247949
 31
0.0
  0
LINE
  5
2B0
330
290
100
AcDbEntity
  8
0
 62
     0
100
AcDbLine
 10
-91.85631040525734
 20
0.6358561841806775
 30
0.0
 11
-91.55745199582982
 21
0.6097094613563801
 31
0.0
  0
LINE
  5
2B1
330
290
100
AcDbEntity
  8
0
 62
     0
100
AcDbLine
 10
-88.27000949212706
 20
0.3220955102891084
 30
0.0
 11
-87.97115108269954
 21
0.295948787464811
 31
0.0
  0
LINE
  5
2B2
330
290
100
AcDbEntity
  8
0
 62
     0
100
AcDbLine
 10
-110.4741073343601
 20
5.964967180103784
 30
0.0
 11
-110.1827132295462
 21
5.939473499314284
 31
0.0
  0
LINE
  5
2B3
330
290
100
AcDbEntity
  8
0
 62
     0
100
AcDbLine
 10
-106.8952707258435
 20
5.651859548247013
 30
0.0
 11
-106.5964123164159
 21
5.625712825422716
 31
0.0
  0
LINE
  5
2B4
330
290
100
AcDbEntity
  8
0
 62
     0
100
AcDbLine
 10
-103.3089698127132
 20
5.338098874355444
 30
0.0
 11
-103.0101114032856
 21
5.311952151531147
 31
0.0
  0
LINE
  5
2B5
330
290
100
AcDbEntity
  8
0
 62
     0
100
AcDbLine
 10
-99.72266889958293
 20
5.024338200463875
 30
0.0
 11
-99.42381049015541
 21
4.998191477639578
 31
0.0
  0
LINE
  5
2B6
330
290
100
AcDbEntity
  8
0
 62
     0
100
AcDbLine
 10
-96.13636798645265
 20
4.710577526572307
 30
0.0
 11
-95.83750957702511
 21
4.68443080374801
 31
0.0
  0
LINE
  5
2B7
330
290
100
AcDbEntity
  8
0
 62
     0
100
AcDbLine
 10
-92.55006707332235
 20
4.396816852680738
 30
0.0
 11
-92.25120866389483
 21
4.370670129856441
 31
0.0
  0
LINE
  5
2B8
330
290
100
AcDbEntity
  8
0
 62
     0
100
AcDbLine
 10
-88.96376616019207
 20
4.08305617878917
 30
0.0
 11
-88.66490775076455
 21
4.056909455964873
 31
0.0
  0
LINE
  5
2B9
330
290
100
AcDbEntity
  8
0
 62
     0
100
AcDbLine
 10
-109.0940583028437
 20
-1.556301114861533
 30
0.0
 11
-108.7951998934162
 21
-1.582447837685831
 31
0.0
  0
LINE
  5
2BA
330
290
100
AcDbEntity
  8
0
 62
     0
100
AcDbLine
 10
-105.5077573897134
 20
-1.870061788753102
 30
0.0
 11
-105.2088989802859
 21
-1.8962085115774
 31
0.0
  0
LINE
  5
2BB
330
290
100
AcDbEntity
  8
0
 62
     0
100
AcDbLine
 10
-101.9214564765832
 20
-2.183822462644672
 30
0.0
 11
-101.6225980671557
 21
-2.209969185468969
 31
0.0
  0
LINE
  5
2BC
330
290
100
AcDbEntity
  8
0
 62
     0
100
AcDbLine
 10
-98.33515556345293
 20
-2.497583136536241
 30
0.0
 11
-98.03629715402541
 21
-2.523729859360538
 31
0.0
  0
LINE
  5
2BD
330
290
100
AcDbEntity
  8
0
 62
     0
100
AcDbLine
 10
-94.74885465032263
 20
-2.81134381042781
 30
0.0
 11
-94.44999624089511
 21
-2.837490533252107
 31
0.0
  0
LINE
  5
2BE
330
290
100
AcDbEntity
  8
0
 62
     0
100
AcDbLine
 10
-91.16255373719235
 20
-3.125104484319379
 30
0.0
 11
-90.86369532776483
 21
-3.151251207143676
 31
0.0
  0
LINE
  5
2BF
330
290
100
AcDbEntity
  8
0
 62
     0
100
AcDbLine
 10
-87.57625282406207
 20
-3.438865158210948
 30
0.0
 11
-87.27739441463453
 21
-3.465011881035245
 31
0.0
  0
LINE
  5
2C0
330
290
100
AcDbEntity
  8
0
 62
     0
100
AcDbLine
 10
-108.4003016347788
 20
-5.317261783361593
 30
0.0
 11
-108.1014432253512
 21
-5.34340850618589
 31
0.0
  0
LINE
  5
2C1
330
290
100
AcDbEntity
  8
0
 62
     0
100
AcDbLine
 10
-104.8140007216485
 20
-5.631022457253162
 30
0.0
 11
-104.5151423122209
 21
-5.657169180077459
 31
0.0
  0
LINE
  5
2C2
330
290
100
AcDbEntity
  8
0
 62
     0
100
AcDbLine
 10
-101.2276998085182
 20
-5.94478313114473
 30
0.0
 11
-100.9288413990907
 21
-5.970929853969027
 31
0.0
  0
LINE
  5
2C3
330
290
100
AcDbEntity
  8
0
 62
     0
100
AcDbLine
 10
-97.64139889538794
 20
-6.258543805036299
 30
0.0
 11
-97.34254048596042
 21
-6.284690527860596
 31
0.0
  0
LINE
  5
2C4
330
290
100
AcDbEntity
  8
0
 62
     0
100
AcDbLine
 10
-94.05509798225764
 20
-6.572304478927867
 30
0.0
 11
-93.88227728047043
 21
-6.587424331156843
 31
0.0
  0
LINE
  5
2C5
330
290
100
AcDbEntity
  8
0
 62
     0
100
AcDbLine
 10
-93.75826433888571
 20
-6.587424331156846
 30
0.0
 11
-93.81405675363906
 21
-6.284963821260695
 31
0.0
  0
LINE
  5
2C6
330
290
100
AcDbEntity
  8
0
 62
     0
100
AcDbLine
 10
-94.44999767538492
 20
-2.837416044282902
 30
0.0
 11
-94.50781048463872
 21
-2.524002619846285
 31
0.0
  0
LINE
  5
2C7
330
290
100
AcDbEntity
  8
0
 62
     0
100
AcDbLine
 10
-95.14375140638458
 20
0.9235451571315078
 30
0.0
 11
-95.20156421563838
 21
1.236958581568124
 31
0.0
  0
LINE
  5
2C8
330
290
100
AcDbEntity
  8
0
 62
     0
100
AcDbLine
 10
-95.83750513738424
 20
4.684506358545918
 30
0.0
 11
-95.89531794663804
 21
4.997919782982535
 31
0.0
  0
LINE
  5
2C9
330
290
100
AcDbEntity
  8
0
 62
     0
100
AcDbLine
 10
-90.86369703581516
 20
-3.151179535392524
 30
0.0
 11
-90.92150984506893
 21
-2.837766110955907
 31
0.0
  0
LINE
  5
2CA
330
290
100
AcDbEntity
  8
0
 62
     0
100
AcDbLine
 10
-91.55745076681482
 20
0.6097816660218857
 30
0.0
 11
-91.61526357606859
 21
0.9231950904585028
 31
0.0
  0
LINE
  5
2CB
330
290
100
AcDbEntity
  8
0
 62
     0
100
AcDbLine
 10
-92.25120449781448
 20
4.370742867436296
 30
0.0
 11
-92.30901730706825
 21
4.684156291872913
 31
0.0
  0
LINE
  5
2CC
330
290
100
AcDbEntity
  8
0
 62
     0
100
AcDbLine
 10
-87.27739639624536
 20
-3.464943026502174
 30
0.0
 11
-87.33520920549915
 21
-3.151529602065556
 31
0.0
  0
LINE
  5
2CD
330
290
100
AcDbEntity
  8
0
 62
     0
100
AcDbLine
 10
-87.97115012724502
 20
0.296018174912236
 30
0.0
 11
-88.02896293649881
 21
0.6094315993488533
 31
0.0
  0
LINE
  5
2CE
330
290
100
AcDbEntity
  8
0
 62
     0
100
AcDbLine
 10
-88.66490385824468
 20
4.056979376326646
 30
0.0
 11
-88.72271666749847
 21
4.370392800763263
 31
0.0
  0
LINE
  5
2CF
330
290
100
AcDbEntity
  8
0
 62
     0
100
AcDbLine
 10
-97.34254458395502
 20
-6.284613754587662
 30
0.0
 11
-97.4003573932088
 21
-5.971200330151045
 31
0.0
  0
LINE
  5
2D0
330
290
100
AcDbEntity
  8
0
 62
     0
100
AcDbLine
 10
-98.03629831495468
 20
-2.523652553173252
 30
0.0
 11
-98.09411112420846
 21
-2.210239128736635
 31
0.0
  0
LINE
  5
2D1
330
290
100
AcDbEntity
  8
0
 62
     0
100
AcDbLine
 10
-98.73005204595434
 20
1.237308648241157
 30
0.0
 11
-98.78786485520812
 21
1.550722072677774
 31
0.0
  0
LINE
  5
2D2
330
290
100
AcDbEntity
  8
0
 62
     0
100
AcDbLine
 10
-99.423805776954
 20
4.998269849655567
 30
0.0
 11
-99.48161858620778
 21
5.311683274092184
 31
0.0
  0
LINE
  5
2D3
330
290
100
AcDbEntity
  8
0
 62
     0
100
AcDbLine
 10
-100.9288452235247
 20
-5.970850263478027
 30
0.0
 11
-100.9866580327785
 21
-5.65743683904141
 31
0.0
  0
LINE
  5
2D4
330
290
100
AcDbEntity
  8
0
 62
     0
100
AcDbLine
 10
-101.6225989545244
 20
-2.209889062063617
 30
0.0
 11
-101.6804117637782
 21
-1.896475637627
 31
0.0
  0
LINE
  5
2D5
330
290
100
AcDbEntity
  8
0
 62
     0
100
AcDbLine
 10
-102.3163526855241
 20
1.551072139350792
 30
0.0
 11
-102.3741654947778
 21
1.864485563787409
 31
0.0
  0
LINE
  5
2D6
330
290
100
AcDbEntity
  8
0
 62
     0
100
AcDbLine
 10
-103.0101064165237
 20
5.312033340765203
 30
0.0
 11
-103.0679192257775
 21
5.62544676520182
 31
0.0
  0
LINE
  5
2D7
330
290
100
AcDbEntity
  8
0
 62
     0
100
AcDbLine
 10
-104.5151458630945
 20
-5.657086772368376
 30
0.0
 11
-104.5729586723483
 21
-5.343673347931759
 31
0.0
  0
LINE
  5
2D8
330
290
100
AcDbEntity
  8
0
 62
     0
100
AcDbLine
 10
-105.2088995940942
 20
-1.896125570953966
 30
0.0
 11
-105.266712403348
 21
-1.582712146517349
 31
0.0
  0
LINE
  5
2D9
330
290
100
AcDbEntity
  8
0
 62
     0
100
AcDbLine
 10
-105.9026533250938
 20
1.864835630460443
 30
0.0
 11
-105.9604661343476
 21
2.17824905489706
 31
0.0
  0
LINE
  5
2DA
330
290
100
AcDbEntity
  8
0
 62
     0
100
AcDbLine
 10
-106.5964070560935
 20
5.625796831874853
 30
0.0
 11
-106.6542198653473
 21
5.93921025631147
 31
0.0
  0
LINE
  5
2DB
330
290
100
AcDbEntity
  8
0
 62
     0
100
AcDbLine
 10
-108.1014465026643
 20
-5.343323281258741
 30
0.0
 11
-108.1592593119181
 21
-5.029909856822124
 31
0.0
  0
LINE
  5
2DC
330
290
100
AcDbEntity
  8
0
 62
     0
100
AcDbLine
 10
-108.795200233664
 20
-1.582362079844331
 30
0.0
 11
-108.8530130429177
 21
-1.268948655407714
 31
0.0
  0
LINE
  5
2DD
330
290
100
AcDbEntity
  8
0
 62
     0
100
AcDbLine
 10
-109.4889539646636
 20
2.178599121570079
 30
0.0
 11
-109.5467667739174
 21
2.492012546006696
 31
0.0
  0
LINE
  5
2DE
330
290
100
AcDbEntity
  8
0
 62
     0
100
AcDbLine
 10
-110.1827076956633
 20
5.939560322984489
 30
0.0
 11
-110.2405205049171
 21
6.252973747421106
 31
0.0
  0
LINE
  5
2DF
330
290
100
AcDbEntity
  8
0
 62
     0
100
AcDbLine
 10
-98.73631755041341
 20
-6.068445939455931
 30
0.0
 11
-98.34687507325737
 21
-5.662563189161508
 31
0.0
  0
LINE
  5
2E0
330
290
100
AcDbEntity
  8
0
 62
     0
100
AcDbLine
 10
-94.06300782454088
 20
-1.197852935922854
 30
0.0
 11
-93.67356534738485
 21
-0.7919701856284311
 31
0.0
  0
LINE
  5
2E1
330
290
100
AcDbEntity
  8
0
 62
     0
100
AcDbLine
 10
-89.38969809866838
 20
3.672740067610222
 30
0.0
 11
-89.00025562151233
 21
4.078622817904645
 31
0.0
  0
LINE
  5
2E2
330
290
100
AcDbEntity
  8
0
 62
     0
100
AcDbLine
 10
-93.10399614013604
 20
-6.587424331156847
 30
0.0
 11
-93.01066983012914
 21
-6.490158260806597
 31
0.0
  0
LINE
  5
2E3
330
290
100
AcDbEntity
  8
0
 62
     0
100
AcDbLine
 10
-88.72680258141265
 20
-2.025448007567943
 30
0.0
 11
-88.33736010425662
 21
-1.61956525727352
 31
0.0
  0
LINE
  5
2E4
330
290
100
AcDbEntity
  8
0
 62
     0
100
AcDbLine
 10
-104.0725227935416
 20
-5.240850867810838
 30
0.0
 11
-103.6830803163855
 21
-4.834968117516415
 31
0.0
  0
LINE
  5
2E5
330
290
100
AcDbEntity
  8
0
 62
     0
100
AcDbLine
 10
-99.39921306766912
 20
-0.3702578642777613
 30
0.0
 11
-99.00977059051307
 21
0.0356248860166618
 31
0.0
  0
LINE
  5
2E6
330
290
100
AcDbEntity
  8
0
 62
     0
100
AcDbLine
 10
-94.7259033417966
 20
4.500335139255315
 30
0.0
 11
-94.33646086464056
 21
4.906217889549738
 31
0.0
  0
LINE
  5
2E7
330
290
100
AcDbEntity
  8
0
 62
     0
100
AcDbLine
 10
-109.4087280366698
 20
-4.413255796165749
 30
0.0
 11
-109.0192855595137
 21
-4.007373045871326
 31
0.0
  0
LINE
  5
2E8
330
290
100
AcDbEntity
  8
0
 62
     0
100
AcDbLine
 10
-104.7354183107973
 20
0.4573372073673273
 30
0.0
 11
-104.3459758336412
 21
0.8632199576617503
 31
0.0
  0
LINE
  5
2E9
330
290
100
AcDbEntity
  8
0
 62
     0
100
AcDbLine
 10
-100.0621085849247
 20
5.327930210900404
 30
0.0
 11
-99.67266610776876
 21
5.733812961194827
 31
0.0
  0
LINE
  5
2EA
330
290
100
AcDbEntity
  8
0
 62
     0
100
AcDbLine
 10
-110.0716235539255
 20
1.284932279012414
 30
0.0
 11
-109.6821810767695
 21
1.690815029306837
 31
0.0
  0
LINE
  5
2EB
330
290
100
AcDbEntity
  8
0
 62
     0
100
AcDbLine
 10
-105.398313828053
 20
6.15552528254549
 30
0.0
 11
-105.0088713508969
 21
6.561408032839914
 31
0.0
  0
LINE
  5
2EC
330
290
100
AcDbEntity
  8
0
 62
     0
100
AcDbLine
 10
-92.99935187355636
 20
-6.587424331156846
 30
0.0
 11
-93.01067428959134
 21
-6.490097236224869
 31
0.0
  0
LINE
  5
2ED
330
290
100
AcDbEntity
  8
0
 62
     0
100
AcDbLine
 10
-93.61832433817893
 20
-1.266758526388363
 30
0.0
 11
-93.67356526051105
 21
-0.7919094769147748
 31
0.0
  0
LINE
  5
2EE
330
290
100
AcDbEntity
  8
0
 62
     0
100
AcDbLine
 10
-94.28121530909866
 20
4.431429232921731
 30
0.0
 11
-94.33645623143076
 21
4.906278282395319
 31
0.0
  0
LINE
  5
2EF
330
290
100
AcDbEntity
  8
0
 62
     0
100
AcDbLine
 10
-88.2821198395157
 20
-2.094356931196244
 30
0.0
 11
-88.33736076184782
 21
-1.619507881722655
 31
0.0
  0
LINE
  5
2F0
330
290
100
AcDbEntity
  8
0
 62
     0
100
AcDbLine
 10
-88.94501081043541
 20
3.60383082811385
 30
0.0
 11
-89.00025173276754
 21
4.078679877587439
 31
0.0
  0
LINE
  5
2F1
330
290
100
AcDbEntity
  8
0
 62
     0
100
AcDbLine
 10
-98.29163786592244
 20
-6.137347880890564
 30
0.0
 11
-98.34687878825455
 21
-5.662498831416975
 31
0.0
  0
LINE
  5
2F2
330
290
100
AcDbEntity
  8
0
 62
     0
100
AcDbLine
 10
-98.95452883684216
 20
-0.4391601215804699
 30
0.0
 11
-99.00976975917428
 21
0.0356889278931192
 31
0.0
  0
LINE
  5
2F3
330
290
100
AcDbEntity
  8
0
 62
     0
100
AcDbLine
 10
-99.61741980776189
 20
5.259027637729625
 30
0.0
 11
-99.67266073009399
 21
5.733876687203213
 31
0.0
  0
LINE
  5
2F4
330
290
100
AcDbEntity
  8
0
 62
     0
100
AcDbLine
 10
-103.6278423645856
 20
-5.309749476082669
 30
0.0
 11
-103.6830832869177
 21
-4.83490042660908
 31
0.0
  0
LINE
  5
2F5
330
290
100
AcDbEntity
  8
0
 62
     0
100
AcDbLine
 10
-104.2907333355054
 20
0.388438283227425
 30
0.0
 11
-104.3459742578375
 21
0.8632873327010141
 31
0.0
  0
LINE
  5
2F6
330
290
100
AcDbEntity
  8
0
 62
     0
100
AcDbLine
 10
-104.9536243064251
 20
6.08662604253752
 30
0.0
 11
-105.0088652287572
 21
6.561475092011108
 31
0.0
  0
LINE
  5
2F7
330
290
100
AcDbEntity
  8
0
 62
     0
100
AcDbLine
 10
-108.9640468632488
 20
-4.482151071274802
 30
0.0
 11
-109.019287785581
 21
-4.007302021801214
 31
0.0
  0
LINE
  5
2F8
330
290
100
AcDbEntity
  8
0
 62
     0
100
AcDbLine
 10
-109.6269378341686
 20
1.216036688035291
 30
0.0
 11
-109.6821787565007
 21
1.69088573750888
 31
0.0
  0
LINE
  5
2F9
330
290
100
AcDbEntity
  8
0
 62
     0
100
AcDbLine
 10
-105.3983138328879
 20
6.155525253068871
 30
0.0
 11
-104.9536300626029
 21
6.086558997224787
 31
0.0
  0
LINE
  5
2FA
330
290
100
AcDbEntity
  8
0
 62
     0
100
AcDbLine
 10
-100.0621085894684
 20
5.327930182939864
 30
0.0
 11
-99.61742481918342
 21
5.25896392709578
 31
0.0
  0
LINE
  5
2FB
330
290
100
AcDbEntity
  8
0
 62
     0
100
AcDbLine
 10
-94.72590334604886
 20
4.500335112810857
 30
0.0
 11
-94.28121957576388
 21
4.431368856966773
 31
0.0
  0
LINE
  5
2FC
330
290
100
AcDbEntity
  8
0
 62
     0
100
AcDbLine
 10
-89.3896981026293
 20
3.67274004268185
 30
0.0
 11
-88.94501433234434
 21
3.603773786837766
 31
0.0
  0
LINE
  5
2FD
330
290
100
AcDbEntity
  8
0
 62
     0
100
AcDbLine
 10
-110.071623558556
 20
1.284932248442246
 30
0.0
 11
-109.6269397882711
 21
1.215965992598162
 31
0.0
  0
LINE
  5
2FE
330
290
100
AcDbEntity
  8
0
 62
     0
100
AcDbLine
 10
-104.7354183151365
 20
0.4573371783132402
 30
0.0
 11
-104.2907345448515
 21
0.3883709224691563
 31
0.0
  0
LINE
  5
2FF
330
290
100
AcDbEntity
  8
0
 62
     0
100
AcDbLine
 10
-99.39921307171701
 20
-0.3702578918157665
 30
0.0
 11
-98.95452930143203
 21
-0.4392241476598504
 31
0.0
  0
LINE
  5
300
330
290
100
AcDbEntity
  8
0
 62
     0
100
AcDbLine
 10
-94.06300782829745
 20
-1.197852961944773
 30
0.0
 11
-93.6183240580125
 21
-1.266819217788857
 31
0.0
  0
LINE
  5
301
330
290
100
AcDbEntity
  8
0
 62
     0
100
AcDbLine
 10
-88.72680258487791
 20
-2.025448032073779
 30
0.0
 11
-88.28211881459294
 21
-2.094414287917863
 31
0.0
  0
LINE
  5
302
330
290
100
AcDbEntity
  8
0
 62
     0
100
AcDbLine
 10
-109.4087280408046
 20
-4.413255826313383
 30
0.0
 11
-108.9640442705197
 21
-4.482222082157467
 31
0.0
  0
LINE
  5
303
330
290
100
AcDbEntity
  8
0
 62
     0
100
AcDbLine
 10
-104.0725227973851
 20
-5.24085089644239
 30
0.0
 11
-103.6278390271001
 21
-5.309817152286474
 31
0.0
  0
LINE
  5
304
330
290
100
AcDbEntity
  8
0
 62
     0
100
AcDbLine
 10
-98.73631755396559
 20
-6.068445966571397
 30
0.0
 11
-98.29163378368063
 21
-6.137412222415481
 31
0.0
  0
LINE
  5
305
330
290
100
AcDbEntity
  8
0
 62
     0
100
AcDbLine
 10
-107.9499024127887
 20
-6.133764926575692
 30
0.0
 11
-107.5998097528523
 21
-5.999376945496205
 31
0.0
  0
LINE
  5
306
330
290
100
AcDbEntity
  8
0
 62
     0
100
AcDbLine
 10
-103.7487904935513
 20
-4.521109153621842
 30
0.0
 11
-103.3986978336148
 21
-4.386721172542355
 31
0.0
  0
LINE
  5
307
330
290
100
AcDbEntity
  8
0
 62
     0
100
AcDbLine
 10
-99.54767857431393
 20
-2.908453380667991
 30
0.0
 11
-99.19758591437748
 21
-2.774065399588503
 31
0.0
  0
LINE
  5
308
330
290
100
AcDbEntity
  8
0
 62
     0
100
AcDbLine
 10
-95.34656665507652
 20
-1.29579760771414
 30
0.0
 11
-94.99647399514008
 21
-1.161409626634652
 31
0.0
  0
LINE
  5
309
330
290
100
AcDbEntity
  8
0
 62
     0
100
AcDbLine
 10
-91.14545473583913
 20
0.3168581652397111
 30
0.0
 11
-90.79536207590267
 21
0.4512461463191987
 31
0.0
  0
LINE
  5
30A
330
290
100
AcDbEntity
  8
0
 62
     0
100
AcDbLine
 10
-86.94434281660171
 20
1.929513938193562
 30
0.0
 11
-86.59425015666526
 21
2.063901919273049
 31
0.0
  0
LINE
  5
30B
330
290
100
AcDbEntity
  8
0
 62
     0
100
AcDbLine
 10
-100.764255232959
 20
-6.53420360694854
 30
0.0
 11
-100.4141625730225
 21
-6.399815625869052
 31
0.0
  0
LINE
  5
30C
330
290
100
AcDbEntity
  8
0
 62
     0
100
AcDbLine
 10
-96.56314331372163
 20
-4.921547833994689
 30
0.0
 11
-96.21305065378518
 21
-4.787159852915202
 31
0.0
  0
LINE
  5
30D
330
290
100
AcDbEntity
  8
0
 62
     0
100
AcDbLine
 10
-92.36203139448422
 20
-3.308892061040838
 30
0.0
 11
-92.01193873454776
 21
-3.174504079961351
 31
0.0
  0
LINE
  5
30E
330
290
100
AcDbEntity
  8
0
 62
     0
100
AcDbLine
 10
-88.16091947524681
 20
-1.696236288086987
 30
0.0
 11
-87.81082681531037
 21
-1.561848307007499
 31
0.0
  0
LINE
  5
30F
330
290
100
AcDbEntity
  8
0
 62
     0
100
AcDbLine
 10
-89.3774961338919
 20
-5.321986514367527
 30
0.0
 11
-89.02740347395544
 21
-5.187598533288039
 31
0.0
  0
LINE
  5
310
330
290
100
AcDbEntity
  8
0
 62
     0
100
AcDbLine
 10
-106.7333257541436
 20
-2.508014700295153
 30
0.0
 11
-106.3832330942071
 21
-2.373626719215665
 31
0.0
  0
LINE
  5
311
330
290
100
AcDbEntity
  8
0
 62
     0
100
AcDbLine
 10
-102.5322138349062
 20
-0.8953589273413019
 30
0.0
 11
-102.1821211749697
 21
-0.7609709462618143
 31
0.0
  0
LINE
  5
312
330
290
100
AcDbEntity
  8
0
 62
     0
100
AcDbLine
 10
-98.33110191566882
 20
0.7172968456125494
 30
0.0
 11
-97.98100925573237
 21
0.8516848266920369
 31
0.0
  0
LINE
  5
313
330
290
100
AcDbEntity
  8
0
 62
     0
100
AcDbLine
 10
-94.12998999643141
 20
2.3299526185664
 30
0.0
 11
-93.77989733649497
 21
2.464340599645888
 31
0.0
  0
LINE
  5
314
330
290
100
AcDbEntity
  8
0
 62
     0
100
AcDbLine
 10
-89.92887807719402
 20
3.942608391520251
 30
0.0
 11
-89.57878541725756
 21
4.076996372599738
 31
0.0
  0
LINE
  5
315
330
290
100
AcDbEntity
  8
0
 62
     0
100
AcDbLine
 10
-109.7178610147359
 20
-0.4949202469684585
 30
0.0
 11
-109.3677683547995
 21
-0.3605322658889708
 31
0.0
  0
LINE
  5
316
330
290
100
AcDbEntity
  8
0
 62
     0
100
AcDbLine
 10
-105.5167490954985
 20
1.117735525985392
 30
0.0
 11
-105.1666564355621
 21
1.25212350706488
 31
0.0
  0
LINE
  5
317
330
290
100
AcDbEntity
  8
0
 62
     0
100
AcDbLine
 10
-101.3156371762611
 20
2.730391298939244
 30
0.0
 11
-100.9655445163246
 21
2.864779280018731
 31
0.0
  0
LINE
  5
318
330
290
100
AcDbEntity
  8
0
 62
     0
100
AcDbLine
 10
-97.11452525702375
 20
4.343047071893095
 30
0.0
 11
-96.76443259708729
 21
4.477435052972582
 31
0.0
  0
LINE
  5
319
330
290
100
AcDbEntity
  8
0
 62
     0
100
AcDbLine
 10
-92.91341333778634
 20
5.955702844846945
 30
0.0
 11
-92.56332067784988
 21
6.090090825926433
 31
0.0
  0
LINE
  5
31A
330
290
100
AcDbEntity
  8
0
 62
     0
100
AcDbLine
 10
-108.5012843560908
 20
3.130829979312085
 30
0.0
 11
-108.1511916961544
 21
3.265217960391572
 31
0.0
  0
LINE
  5
31B
330
290
100
AcDbEntity
  8
0
 62
     0
100
AcDbLine
 10
-104.3001724368534
 20
4.743485752265936
 30
0.0
 11
-103.950079776917
 21
4.877873733345423
 31
0.0
  0
LINE
  5
31C
330
290
100
AcDbEntity
  8
0
 62
     0
100
AcDbLine
 10
-100.099060517616
 20
6.356141525219786
 30
0.0
 11
-99.7489678576796
 21
6.490529506299274
 31
0.0
  0
LINE
  5
31D
330
290
100
AcDbEntity
  8
0
 62
     0
100
AcDbLine
 10
-107.2847076974457
 20
6.756580205592628
 30
0.0
 11
-107.1977981198937
 21
6.789941666714982
 31
0.0
  0
LINE
  5
31E
330
290
100
AcDbEntity
  8
0
 62
     0
100
AcDbLine
 10
-107.2847077300631
 20
6.75658019632661
 30
0.0
 11
-107.0359964582966
 21
6.588822325285386
 31
0.0
  0
LINE
  5
31F
330
290
100
AcDbEntity
  8
0
 62
     0
100
AcDbLine
 10
-104.3001724688649
 20
4.743485743831923
 30
0.0
 11
-104.0514611970984
 21
4.575727872790699
 31
0.0
  0
LINE
  5
320
330
290
100
AcDbEntity
  8
0
 62
     0
100
AcDbLine
 10
-101.3156372076668
 20
2.730391291337237
 30
0.0
 11
-101.0669259359003
 21
2.562633420296013
 31
0.0
  0
LINE
  5
321
330
290
100
AcDbEntity
  8
0
 62
     0
100
AcDbLine
 10
-98.3311019464687
 20
0.7172968388425502
 30
0.0
 11
-98.08239067470218
 21
0.5495389678013263
 31
0.0
  0
LINE
  5
322
330
290
100
AcDbEntity
  8
0
 62
     0
100
AcDbLine
 10
-95.34656668527054
 20
-1.295797613652136
 30
0.0
 11
-95.09785541350403
 21
-1.46355548469336
 31
0.0
  0
LINE
  5
323
330
290
100
AcDbEntity
  8
0
 62
     0
100
AcDbLine
 10
-92.36203142407239
 20
-3.308892066146823
 30
0.0
 11
-92.11332015230588
 21
-3.476649937188047
 31
0.0
  0
LINE
  5
324
330
290
100
AcDbEntity
  8
0
 62
     0
100
AcDbLine
 10
-89.37749616287424
 20
-5.32198651864151
 30
0.0
 11
-89.12878489110774
 21
-5.489744389682734
 31
0.0
  0
LINE
  5
325
330
290
100
AcDbEntity
  8
0
 62
     0
100
AcDbLine
 10
-100.0990605480589
 20
6.356141516571505
 30
0.0
 11
-99.85034927629243
 21
6.188383645530281
 31
0.0
  0
LINE
  5
326
330
290
100
AcDbEntity
  8
0
 62
     0
100
AcDbLine
 10
-97.11452528686079
 20
4.343047064076818
 30
0.0
 11
-96.86581401509428
 21
4.175289193035594
 31
0.0
  0
LINE
  5
327
330
290
100
AcDbEntity
  8
0
 62
     0
100
AcDbLine
 10
-94.12999002566264
 20
2.329952611582132
 30
0.0
 11
-93.88127875389612
 21
2.162194740540908
 31
0.0
  0
LINE
  5
328
330
290
100
AcDbEntity
  8
0
 62
     0
100
AcDbLine
 10
-91.14545476446449
 20
0.3168581590874453
 30
0.0
 11
-90.89674349269797
 21
0.1491002880462214
 31
0.0
  0
LINE
  5
329
330
290
100
AcDbEntity
  8
0
 62
     0
100
AcDbLine
 10
-88.16091950326635
 20
-1.696236293407241
 30
0.0
 11
-87.91220823149982
 21
-1.863994164448465
 31
0.0
  0
LINE
  5
32A
330
290
100
AcDbEntity
  8
0
 62
     0
100
AcDbLine
 10
-92.91341336605471
 20
5.955702836816394
 30
0.0
 11
-92.6647020942882
 21
5.78794496577517
 31
0.0
  0
LINE
  5
32B
330
290
100
AcDbEntity
  8
0
 62
     0
100
AcDbLine
 10
-89.92887810485656
 20
3.942608384321707
 30
0.0
 11
-89.68016683309006
 21
3.774850513280483
 31
0.0
  0
LINE
  5
32C
330
290
100
AcDbEntity
  8
0
 62
     0
100
AcDbLine
 10
-86.94434284365842
 20
1.92951393182702
 30
0.0
 11
-86.69563157189191
 21
1.761756060785796
 31
0.0
  0
LINE
  5
32D
330
290
100
AcDbEntity
  8
0
 62
     0
100
AcDbLine
 10
-108.501284389671
 20
3.130829971092341
 30
0.0
 11
-108.2525731179045
 21
2.963072100051117
 31
0.0
  0
LINE
  5
32E
330
290
100
AcDbEntity
  8
0
 62
     0
100
AcDbLine
 10
-105.5167491284728
 20
1.117735518597655
 30
0.0
 11
-105.2680378567063
 21
0.9499776475564313
 31
0.0
  0
LINE
  5
32F
330
290
100
AcDbEntity
  8
0
 62
     0
100
AcDbLine
 10
-102.5322138672747
 20
-0.8953589338970315
 30
0.0
 11
-102.2835025955082
 21
-1.063116804938255
 31
0.0
  0
LINE
  5
330
330
290
100
AcDbEntity
  8
0
 62
     0
100
AcDbLine
 10
-99.5476786060766
 20
-2.908453386391718
 30
0.0
 11
-99.29896733431009
 21
-3.076211257432942
 31
0.0
  0
LINE
  5
331
330
290
100
AcDbEntity
  8
0
 62
     0
100
AcDbLine
 10
-96.56314334487845
 20
-4.921547838886405
 30
0.0
 11
-96.31443207311194
 21
-5.089305709927629
 31
0.0
  0
LINE
  5
332
330
290
100
AcDbEntity
  8
0
 62
     0
100
AcDbLine
 10
-109.7178610492789
 20
-0.4949202541419217
 30
0.0
 11
-109.4691497775124
 21
-0.6626781251831455
 31
0.0
  0
LINE
  5
333
330
290
100
AcDbEntity
  8
0
 62
     0
100
AcDbLine
 10
-106.7333257880808
 20
-2.508014706636608
 30
0.0
 11
-106.4846145163143
 21
-2.675772577677832
 31
0.0
  0
LINE
  5
334
330
290
100
AcDbEntity
  8
0
 62
     0
100
AcDbLine
 10
-103.7487905268826
 20
-4.521109159131295
 30
0.0
 11
-103.5000792551161
 21
-4.688867030172519
 31
0.0
  0
LINE
  5
335
330
290
100
AcDbEntity
  8
0
 62
     0
100
AcDbLine
 10
-100.7642552656845
 20
-6.534203611625982
 30
0.0
 11
-100.6853523041918
 21
-6.587424331156852
 31
0.0
  0
LINE
  5
336
330
290
100
AcDbEntity
  8
0
 62
     0
100
AcDbLine
 10
-107.9499024476887
 20
-6.13376493187088
 30
0.0
 11
-107.7011911759222
 21
-6.301522802912104
 31
0.0
  0
LINE
  5
337
330
290
100
AcDbEntity
  8
0
 62
     0
100
AcDbLine
 10
-100.4771437009105
 20
-6.587424331156846
 30
0.0
 11
-100.414167204667
 21
-6.399736648108288
 31
0.0
  0
LINE
  5
338
330
290
100
AcDbEntity
  8
0
 62
     0
100
AcDbLine
 10
-99.29896933886467
 20
-3.076133144288173
 30
0.0
 11
-99.1975877178819
 21
-2.773987380694159
 31
0.0
  0
LINE
  5
339
330
290
100
AcDbEntity
  8
0
 62
     0
100
AcDbLine
 10
-98.08238985207953
 20
0.5496161231259551
 30
0.0
 11
-97.98100823109678
 21
0.8517618867199693
 31
0.0
  0
LINE
  5
33A
330
290
100
AcDbEntity
  8
0
 62
     0
100
AcDbLine
 10
-96.86581036529439
 20
4.175365390540084
 30
0.0
 11
-96.76442874431163
 21
4.477511154134098
 31
0.0
  0
LINE
  5
33B
330
290
100
AcDbEntity
  8
0
 62
     0
100
AcDbLine
 10
-96.31443568274235
 20
-5.089229928152539
 30
0.0
 11
-96.21305406175958
 21
-4.787084164558525
 31
0.0
  0
LINE
  5
33C
330
290
100
AcDbEntity
  8
0
 62
     0
100
AcDbLine
 10
-95.09785619595721
 20
-1.46348066073841
 30
0.0
 11
-94.99647457497443
 21
-1.161334897144395
 31
0.0
  0
LINE
  5
33D
330
290
100
AcDbEntity
  8
0
 62
     0
100
AcDbLine
 10
-93.88127670917207
 20
2.162268606675719
 30
0.0
 11
-93.77989508818931
 21
2.464414370269733
 31
0.0
  0
LINE
  5
33E
330
290
100
AcDbEntity
  8
0
 62
     0
100
AcDbLine
 10
-92.66469722238694
 20
5.788017874089848
 30
0.0
 11
-92.56331560140417
 21
6.090163637683862
 31
0.0
  0
LINE
  5
33F
330
290
100
AcDbEntity
  8
0
 62
     0
100
AcDbLine
 10
-92.1133225398349
 20
-3.476577444602774
 30
0.0
 11
-92.01194091885213
 21
-3.17443168100876
 31
0.0
  0
LINE
  5
340
330
290
100
AcDbEntity
  8
0
 62
     0
100
AcDbLine
 10
-90.89674305304976
 20
0.1491718228113546
 30
0.0
 11
-90.795361432067
 21
0.4513175864053689
 31
0.0
  0
LINE
  5
341
330
290
100
AcDbEntity
  8
0
 62
     0
100
AcDbLine
 10
-89.68016356626462
 20
3.774921090225483
 30
0.0
 11
-89.57878194528186
 21
4.077066853819498
 31
0.0
  0
LINE
  5
342
330
290
100
AcDbEntity
  8
0
 62
     0
100
AcDbLine
 10
-89.12878888371258
 20
-5.489674228467146
 30
0.0
 11
-89.02740726272982
 21
-5.187528464873132
 31
0.0
  0
LINE
  5
343
330
290
100
AcDbEntity
  8
0
 62
     0
100
AcDbLine
 10
-87.91220939692745
 20
-1.863924961053017
 30
0.0
 11
-87.81082777594468
 21
-1.561779197459003
 31
0.0
  0
LINE
  5
344
330
290
100
AcDbEntity
  8
0
 62
     0
100
AcDbLine
 10
-86.69562991014231
 20
1.761824306361111
 30
0.0
 11
-86.59424828915955
 21
2.063970069955125
 31
0.0
  0
LINE
  5
345
330
290
100
AcDbEntity
  8
0
 62
     0
100
AcDbLine
 10
-103.5000824817721
 20
-4.688785627837938
 30
0.0
 11
-103.3987008607893
 21
-4.386639864243924
 31
0.0
  0
LINE
  5
346
330
290
100
AcDbEntity
  8
0
 62
     0
100
AcDbLine
 10
-102.2835029949869
 20
-1.063036360423809
 30
0.0
 11
-102.1821213740042
 21
-0.7608905968297952
 31
0.0
  0
LINE
  5
347
330
290
100
AcDbEntity
  8
0
 62
     0
100
AcDbLine
 10
-101.0669235082018
 20
2.562712906990319
 30
0.0
 11
-100.965541887219
 21
2.864858670584333
 31
0.0
  0
LINE
  5
348
330
290
100
AcDbEntity
  8
0
 62
     0
100
AcDbLine
 10
-99.85034402141671
 20
6.188462174404448
 30
0.0
 11
-99.74896240043394
 21
6.490607937998462
 31
0.0
  0
LINE
  5
349
330
290
100
AcDbEntity
  8
0
 62
     0
100
AcDbLine
 10
-107.7011956246795
 20
-6.301438111387689
 30
0.0
 11
-107.5998140036968
 21
-5.999292347793675
 31
0.0
  0
LINE
  5
34A
330
290
100
AcDbEntity
  8
0
 62
     0
100
AcDbLine
 10
-106.4846161378944
 20
-2.67568884397356
 30
0.0
 11
-106.3832345169116
 21
-2.373543080379546
 31
0.0
  0
LINE
  5
34B
330
290
100
AcDbEntity
  8
0
 62
     0
100
AcDbLine
 10
-105.2680366511093
 20
0.9500604234405685
 30
0.0
 11
-105.1666550301265
 21
1.252206187034582
 31
0.0
  0
LINE
  5
34C
330
290
100
AcDbEntity
  8
0
 62
     0
100
AcDbLine
 10
-104.0514571643241
 20
4.575809690854697
 30
0.0
 11
-103.9500755433413
 21
4.877955454448711
 31
0.0
  0
LINE
  5
34D
330
290
100
AcDbEntity
  8
0
 62
     0
100
AcDbLine
 10
-109.4691497940167
 20
-0.6625920601092023
 30
0.0
 11
-109.3677681730339
 21
-0.360446296515188
 31
0.0
  0
LINE
  5
34E
330
290
100
AcDbEntity
  8
0
 62
     0
100
AcDbLine
 10
-108.2525703072316
 20
2.963157207304926
 30
0.0
 11
-108.1511886862488
 21
3.26530297089894
 31
0.0
  0
LINE
  5
34F
330
290
100
AcDbEntity
  8
0
 62
     0
100
AcDbLine
 10
-107.0359908204464
 20
6.588906474719055
 30
0.0
 11
-106.968535717331
 21
6.789941666714977
 31
0.0
  0
LINE
  5
350
330
290
100
AcDbEntity
  8
0
 62
     0
100
AcDbLine
 10
-104.8255806542306
 20
-6.015945270976354
 30
0.0
 11
-104.8255806542306
 21
-6.015945270976354
 31
0.0
  0
LINE
  5
351
330
290
100
AcDbEntity
  8
0
 62
     0
100
AcDbLine
 10
-102.167846964255
 20
-3.97659448379714
 30
0.0
 11
-102.167846964255
 21
-3.97659448379714
 31
0.0
  0
LINE
  5
352
330
290
100
AcDbEntity
  8
0
 62
     0
100
AcDbLine
 10
-99.53986402454029
 20
-1.960072250205753
 30
0.0
 11
-99.53986402454029
 21
-1.960072250205753
 31
0.0
  0
LINE
  5
353
330
290
100
AcDbEntity
  8
0
 62
     0
100
AcDbLine
 10
-96.95353213519087
 20
0.024490008362676
 30
0.0
 11
-96.95353213519087
 21
0.024490008362676
 31
0.0
  0
LINE
  5
354
330
290
100
AcDbEntity
  8
0
 62
     0
100
AcDbLine
 10
-94.29579844521523
 20
2.06384079554189
 30
0.0
 11
-94.29579844521523
 21
2.06384079554189
 31
0.0
  0
LINE
  5
355
330
290
100
AcDbEntity
  8
0
 62
     0
100
AcDbLine
 10
-91.66781550550052
 20
4.080363029133277
 30
0.0
 11
-91.66781550550052
 21
4.080363029133277
 31
0.0
  0
LINE
  5
356
330
290
100
AcDbEntity
  8
0
 62
     0
100
AcDbLine
 10
-89.0814836161511
 20
6.064925287701706
 30
0.0
 11
-89.0814836161511
 21
6.064925287701706
 31
0.0
  0
LINE
  5
357
330
290
100
AcDbEntity
  8
0
 62
     0
100
AcDbLine
 10
-107.3511132669936
 20
-6.33603826038823
 30
0.0
 11
-107.3511132669936
 21
-6.33603826038823
 31
0.0
  0
LINE
  5
358
330
290
100
AcDbEntity
  8
0
 62
     0
100
AcDbLine
 10
-104.7647813776442
 20
-4.351476001819801
 30
0.0
 11
-104.7647813776442
 21
-4.351476001819801
 31
0.0
  0
LINE
  5
359
330
290
100
AcDbEntity
  8
0
 62
     0
100
AcDbLine
 10
-102.1070476876685
 20
-2.312125214640587
 30
0.0
 11
-102.1070476876685
 21
-2.312125214640587
 31
0.0
  0
LINE
  5
35A
330
290
100
AcDbEntity
  8
0
 62
     0
100
AcDbLine
 10
-99.47906474795386
 20
-0.2956029810491999
 30
0.0
 11
-99.47906474795386
 21
-0.2956029810491999
 31
0.0
  0
LINE
  5
35B
330
290
100
AcDbEntity
  8
0
 62
     0
100
AcDbLine
 10
-96.89273285860444
 20
1.688959277519229
 30
0.0
 11
-96.89273285860444
 21
1.688959277519229
 31
0.0
  0
LINE
  5
35C
330
290
100
AcDbEntity
  8
0
 62
     0
100
AcDbLine
 10
-94.23499916862878
 20
3.728310064698443
 30
0.0
 11
-94.23499916862878
 21
3.728310064698443
 31
0.0
  0
LINE
  5
35D
330
290
100
AcDbEntity
  8
0
 62
     0
100
AcDbLine
 10
-91.60701622891407
 20
5.74483229828983
 30
0.0
 11
-91.60701622891407
 21
5.74483229828983
 31
0.0
  0
LINE
  5
35E
330
290
100
AcDbEntity
  8
0
 62
     0
100
AcDbLine
 10
-107.2903139904071
 20
-4.67156899123166
 30
0.0
 11
-107.2903139904071
 21
-4.67156899123166
 31
0.0
  0
LINE
  5
35F
330
290
100
AcDbEntity
  8
0
 62
     0
100
AcDbLine
 10
-104.7039821010577
 20
-2.68700673266323
 30
0.0
 11
-104.7039821010577
 21
-2.68700673266323
 31
0.0
  0
LINE
  5
360
330
290
100
AcDbEntity
  8
0
 62
     0
100
AcDbLine
 10
-102.046248411082
 20
-0.6476559454840166
 30
0.0
 11
-102.046248411082
 21
-0.6476559454840166
 31
0.0
  0
LINE
  5
361
330
290
100
AcDbEntity
  8
0
 62
     0
100
AcDbLine
 10
-99.41826547136738
 20
1.36886628810737
 30
0.0
 11
-99.41826547136738
 21
1.36886628810737
 31
0.0
  0
LINE
  5
362
330
290
100
AcDbEntity
  8
0
 62
     0
100
AcDbLine
 10
-96.83193358201796
 20
3.353428546675799
 30
0.0
 11
-96.83193358201796
 21
3.353428546675799
 31
0.0
  0
LINE
  5
363
330
290
100
AcDbEntity
  8
0
 62
     0
100
AcDbLine
 10
-94.17419989204232
 20
5.392779333855013
 30
0.0
 11
-94.17419989204232
 21
5.392779333855013
 31
0.0
  0
LINE
  5
364
330
290
100
AcDbEntity
  8
0
 62
     0
100
AcDbLine
 10
-109.8574976535354
 20
-5.023621955666486
 30
0.0
 11
-109.8574976535354
 21
-5.023621955666486
 31
0.0
  0
LINE
  5
365
330
290
100
AcDbEntity
  8
0
 62
     0
100
AcDbLine
 10
-107.2295147138207
 20
-3.007099722075099
 30
0.0
 11
-107.2295147138207
 21
-3.007099722075099
 31
0.0
  0
LINE
  5
366
330
290
100
AcDbEntity
  8
0
 62
     0
100
AcDbLine
 10
-104.6431828244712
 20
-1.02253746350667
 30
0.0
 11
-104.6431828244712
 21
-1.02253746350667
 31
0.0
  0
LINE
  5
367
330
290
100
AcDbEntity
  8
0
 62
     0
100
AcDbLine
 10
-101.9854491344956
 20
1.016813323672544
 30
0.0
 11
-101.9854491344956
 21
1.016813323672544
 31
0.0
  0
LINE
  5
368
330
290
100
AcDbEntity
  8
0
 62
     0
100
AcDbLine
 10
-99.35746619478093
 20
3.033335557263931
 30
0.0
 11
-99.35746619478093
 21
3.033335557263931
 31
0.0
  0
LINE
  5
369
330
290
100
AcDbEntity
  8
0
 62
     0
100
AcDbLine
 10
-96.77113430543151
 20
5.01789781583236
 30
0.0
 11
-96.77113430543151
 21
5.01789781583236
 31
0.0
  0
LINE
  5
36A
330
290
100
AcDbEntity
  8
0
 62
     0
100
AcDbLine
 10
-109.7966983769489
 20
-3.359152686509933
 30
0.0
 11
-109.7966983769489
 21
-3.359152686509933
 31
0.0
  0
LINE
  5
36B
330
290
100
AcDbEntity
  8
0
 62
     0
100
AcDbLine
 10
-107.1687154372342
 20
-1.342630452918546
 30
0.0
 11
-107.1687154372342
 21
-1.342630452918546
 31
0.0
  0
LINE
  5
36C
330
290
100
AcDbEntity
  8
0
 62
     0
100
AcDbLine
 10
-104.5823835478848
 20
0.6419318056498828
 30
0.0
 11
-104.5823835478848
 21
0.6419318056498828
 31
0.0
  0
LINE
  5
36D
330
290
100
AcDbEntity
  8
0
 62
     0
100
AcDbLine
 10
-101.9246498579092
 20
2.681282592829096
 30
0.0
 11
-101.9246498579092
 21
2.681282592829096
 31
0.0
  0
LINE
  5
36E
330
290
100
AcDbEntity
  8
0
 62
     0
100
AcDbLine
 10
-99.29666691819448
 20
4.697804826420483
 30
0.0
 11
-99.29666691819448
 21
4.697804826420483
 31
0.0
  0
LINE
  5
36F
330
290
100
AcDbEntity
  8
0
 62
     0
100
AcDbLine
 10
-96.71033502884506
 20
6.682367084988912
 30
0.0
 11
-96.71033502884506
 21
6.682367084988912
 31
0.0
  0
LINE
  5
370
330
290
100
AcDbEntity
  8
0
 62
     0
100
AcDbLine
 10
-109.7358991003625
 20
-1.69468341735338
 30
0.0
 11
-109.7358991003625
 21
-1.69468341735338
 31
0.0
  0
LINE
  5
371
330
290
100
AcDbEntity
  8
0
 62
     0
100
AcDbLine
 10
-107.1079161606478
 20
0.3218388162380067
 30
0.0
 11
-107.1079161606478
 21
0.3218388162380067
 31
0.0
  0
LINE
  5
372
330
290
100
AcDbEntity
  8
0
 62
     0
100
AcDbLine
 10
-104.5215842712983
 20
2.306401074806435
 30
0.0
 11
-104.5215842712983
 21
2.306401074806435
 31
0.0
  0
LINE
  5
373
330
290
100
AcDbEntity
  8
0
 62
     0
100
AcDbLine
 10
-101.8638505813227
 20
4.345751861985649
 30
0.0
 11
-101.8638505813227
 21
4.345751861985649
 31
0.0
  0
LINE
  5
374
330
290
100
AcDbEntity
  8
0
 62
     0
100
AcDbLine
 10
-99.23586764160802
 20
6.362274095577037
 30
0.0
 11
-99.23586764160802
 21
6.362274095577037
 31
0.0
  0
LINE
  5
375
330
290
100
AcDbEntity
  8
0
 62
     0
100
AcDbLine
 10
-109.675099823776
 20
-0.0302141481968266
 30
0.0
 11
-109.675099823776
 21
-0.0302141481968266
 31
0.0
  0
LINE
  5
376
330
290
100
AcDbEntity
  8
0
 62
     0
100
AcDbLine
 10
-107.0471168840613
 20
1.98630808539456
 30
0.0
 11
-107.0471168840613
 21
1.98630808539456
 31
0.0
  0
LINE
  5
377
330
290
100
AcDbEntity
  8
0
 62
     0
100
AcDbLine
 10
-104.4607849947119
 20
3.970870343962989
 30
0.0
 11
-104.4607849947119
 21
3.970870343962989
 31
0.0
  0
LINE
  5
378
330
290
100
AcDbEntity
  8
0
 62
     0
100
AcDbLine
 10
-101.8030513047363
 20
6.010221131142204
 30
0.0
 11
-101.8030513047363
 21
6.010221131142204
 31
0.0
  0
LINE
  5
379
330
290
100
AcDbEntity
  8
0
 62
     0
100
AcDbLine
 10
-109.6143005471896
 20
1.634255120959727
 30
0.0
 11
-109.6143005471896
 21
1.634255120959727
 31
0.0
  0
LINE
  5
37A
330
290
100
AcDbEntity
  8
0
 62
     0
100
AcDbLine
 10
-106.9863176074749
 20
3.650777354551114
 30
0.0
 11
-106.9863176074749
 21
3.650777354551114
 31
0.0
  0
LINE
  5
37B
330
290
100
AcDbEntity
  8
0
 62
     0
100
AcDbLine
 10
-104.3999857181254
 20
5.635339613119543
 30
0.0
 11
-104.3999857181254
 21
5.635339613119543
 31
0.0
  0
LINE
  5
37C
330
290
100
AcDbEntity
  8
0
 62
     0
100
AcDbLine
 10
-109.5535012706031
 20
3.298724390116298
 30
0.0
 11
-109.5535012706031
 21
3.298724390116298
 31
0.0
  0
LINE
  5
37D
330
290
100
AcDbEntity
  8
0
 62
     0
100
AcDbLine
 10
-106.9255183308884
 20
5.315246623707685
 30
0.0
 11
-106.9255183308884
 21
5.315246623707685
 31
0.0
  0
LINE
  5
37E
330
290
100
AcDbEntity
  8
0
 62
     0
100
AcDbLine
 10
-109.4927019940167
 20
4.96319365927285
 30
0.0
 11
-109.4927019940167
 21
4.96319365927285
 31
0.0
  0
LINE
  5
37F
330
290
100
AcDbEntity
  8
0
 62
     0
100
AcDbLine
 10
-109.4319027174302
 20
6.627662928429405
 30
0.0
 11
-109.4319027174302
 21
6.627662928429405
 31
0.0
  0
LINE
  5
380
330
290
100
AcDbEntity
  8
0
 62
     0
100
AcDbLine
 10
-102.2286462408414
 20
-5.641063752953693
 30
0.0
 11
-102.2286462408414
 21
-5.641063752953693
 31
0.0
  0
LINE
  5
381
330
290
100
AcDbEntity
  8
0
 62
     0
100
AcDbLine
 10
-99.60066330112676
 20
-3.624541519362305
 30
0.0
 11
-99.60066330112676
 21
-3.624541519362305
 31
0.0
  0
LINE
  5
382
330
290
100
AcDbEntity
  8
0
 62
     0
100
AcDbLine
 10
-97.01433141177734
 20
-1.639979260793876
 30
0.0
 11
-97.01433141177734
 21
-1.639979260793876
 31
0.0
  0
LINE
  5
383
330
290
100
AcDbEntity
  8
0
 62
     0
100
AcDbLine
 10
-94.35659772180169
 20
0.3993715263853377
 30
0.0
 11
-94.35659772180169
 21
0.3993715263853377
 31
0.0
  0
LINE
  5
384
330
290
100
AcDbEntity
  8
0
 62
     0
100
AcDbLine
 10
-91.72861478208698
 20
2.415893759976724
 30
0.0
 11
-91.72861478208698
 21
2.415893759976724
 31
0.0
  0
LINE
  5
385
330
290
100
AcDbEntity
  8
0
 62
     0
100
AcDbLine
 10
-89.14228289273756
 20
4.400456018545154
 30
0.0
 11
-89.14228289273756
 21
4.400456018545154
 31
0.0
  0
LINE
  5
386
330
290
100
AcDbEntity
  8
0
 62
     0
100
AcDbLine
 10
-86.48454920276192
 20
6.439806805724368
 30
0.0
 11
-86.48454920276192
 21
6.439806805724368
 31
0.0
  0
LINE
  5
387
330
290
100
AcDbEntity
  8
0
 62
     0
100
AcDbLine
 10
-99.6614625777132
 20
-5.289010788518859
 30
0.0
 11
-99.6614625777132
 21
-5.289010788518859
 31
0.0
  0
LINE
  5
388
330
290
100
AcDbEntity
  8
0
 62
     0
100
AcDbLine
 10
-97.07513068836377
 20
-3.30444852995043
 30
0.0
 11
-97.07513068836377
 21
-3.30444852995043
 31
0.0
  0
LINE
  5
389
330
290
100
AcDbEntity
  8
0
 62
     0
100
AcDbLine
 10
-94.41739699838812
 20
-1.265097742771215
 30
0.0
 11
-94.41739699838812
 21
-1.265097742771215
 31
0.0
  0
LINE
  5
38A
330
290
100
AcDbEntity
  8
0
 62
     0
100
AcDbLine
 10
-91.78941405867341
 20
0.7514244908201714
 30
0.0
 11
-91.78941405867341
 21
0.7514244908201714
 31
0.0
  0
LINE
  5
38B
330
290
100
AcDbEntity
  8
0
 62
     0
100
AcDbLine
 10
-89.20308216932399
 20
2.7359867493886
 30
0.0
 11
-89.20308216932399
 21
2.7359867493886
 31
0.0
  0
LINE
  5
38C
330
290
100
AcDbEntity
  8
0
 62
     0
100
AcDbLine
 10
-86.54534847934835
 20
4.775337536567814
 30
0.0
 11
-86.54534847934835
 21
4.775337536567814
 31
0.0
  0
LINE
  5
38D
330
290
100
AcDbEntity
  8
0
 62
     0
100
AcDbLine
 10
-97.13592996495023
 20
-4.968917799106983
 30
0.0
 11
-97.13592996495023
 21
-4.968917799106983
 31
0.0
  0
LINE
  5
38E
330
290
100
AcDbEntity
  8
0
 62
     0
100
AcDbLine
 10
-94.47819627497457
 20
-2.929567011927769
 30
0.0
 11
-94.47819627497457
 21
-2.929567011927769
 31
0.0
  0
LINE
  5
38F
330
290
100
AcDbEntity
  8
0
 62
     0
100
AcDbLine
 10
-91.85021333525986
 20
-0.9130447783363823
 30
0.0
 11
-91.85021333525986
 21
-0.9130447783363823
 31
0.0
  0
LINE
  5
390
330
290
100
AcDbEntity
  8
0
 62
     0
100
AcDbLine
 10
-89.26388144591044
 20
1.071517480232046
 30
0.0
 11
-89.26388144591044
 21
1.071517480232046
 31
0.0
  0
LINE
  5
391
330
290
100
AcDbEntity
  8
0
 62
     0
100
AcDbLine
 10
-86.60614775593479
 20
3.110868267411261
 30
0.0
 11
-86.60614775593479
 21
3.110868267411261
 31
0.0
  0
LINE
  5
392
330
290
100
AcDbEntity
  8
0
 62
     0
100
AcDbLine
 10
-94.53899555156104
 20
-4.59403628108433
 30
0.0
 11
-94.53899555156104
 21
-4.59403628108433
 31
0.0
  0
LINE
  5
393
330
290
100
AcDbEntity
  8
0
 62
     0
100
AcDbLine
 10
-91.91101261184632
 20
-2.577514047492943
 30
0.0
 11
-91.91101261184632
 21
-2.577514047492943
 31
0.0
  0
LINE
  5
394
330
290
100
AcDbEntity
  8
0
 62
     0
100
AcDbLine
 10
-89.3246807224969
 20
-0.5929517889245145
 30
0.0
 11
-89.3246807224969
 21
-0.5929517889245145
 31
0.0
  0
LINE
  5
395
330
290
100
AcDbEntity
  8
0
 62
     0
100
AcDbLine
 10
-86.66694703252126
 20
1.446398998254699
 30
0.0
 11
-86.66694703252126
 21
1.446398998254699
 31
0.0
  0
LINE
  5
396
330
290
100
AcDbEntity
  8
0
 62
     0
100
AcDbLine
 10
-94.5997948281475
 20
-6.258505550240901
 30
0.0
 11
-94.5997948281475
 21
-6.258505550240901
 31
0.0
  0
LINE
  5
397
330
290
100
AcDbEntity
  8
0
 62
     0
100
AcDbLine
 10
-91.97181188843279
 20
-4.241983316649514
 30
0.0
 11
-91.97181188843279
 21
-4.241983316649514
 31
0.0
  0
LINE
  5
398
330
290
100
AcDbEntity
  8
0
 62
     0
100
AcDbLine
 10
-89.38547999908337
 20
-2.257421058081084
 30
0.0
 11
-89.38547999908337
 21
-2.257421058081084
 31
0.0
  0
LINE
  5
399
330
290
100
AcDbEntity
  8
0
 62
     0
100
AcDbLine
 10
-86.72774630910772
 20
-0.2180702709018705
 30
0.0
 11
-86.72774630910772
 21
-0.2180702709018705
 31
0.0
  0
LINE
  5
39A
330
290
100
AcDbEntity
  8
0
 62
     0
100
AcDbLine
 10
-92.03261116501925
 20
-5.906452585806075
 30
0.0
 11
-92.03261116501925
 21
-5.906452585806075
 31
0.0
  0
LINE
  5
39B
330
290
100
AcDbEntity
  8
0
 62
     0
100
AcDbLine
 10
-89.44627927566981
 20
-3.921890327237646
 30
0.0
 11
-89.44627927566981
 21
-3.921890327237646
 31
0.0
  0
LINE
  5
39C
330
290
100
AcDbEntity
  8
0
 62
     0
100
AcDbLine
 10
-86.78854558569417
 20
-1.882539540058431
 30
0.0
 11
-86.78854558569417
 21
-1.882539540058431
 31
0.0
  0
LINE
  5
39D
330
290
100
AcDbEntity
  8
0
 62
     0
100
AcDbLine
 10
-89.50707855225626
 20
-5.58635959639419
 30
0.0
 11
-89.50707855225626
 21
-5.58635959639419
 31
0.0
  0
LINE
  5
39E
330
290
100
AcDbEntity
  8
0
 62
     0
100
AcDbLine
 10
-86.84934486228062
 20
-3.547008809214976
 30
0.0
 11
-86.84934486228062
 21
-3.547008809214976
 31
0.0
  0
LINE
  5
39F
330
290
100
AcDbEntity
  8
0
 62
     0
100
AcDbLine
 10
-86.91014413886707
 20
-5.211478078371538
 30
0.0
 11
-86.91014413886707
 21
-5.211478078371538
 31
0.0
  0
LINE
  5
3A0
330
290
100
AcDbEntity
  8
0
 62
     0
100
AcDbLine
 10
-108.6580099217968
 20
-1.712870130717674
 30
0.0
 11
-108.6580099217968
 21
-1.712870130717674
 31
0.0
  0
LINE
  5
3A1
330
290
100
AcDbEntity
  8
0
 62
     0
100
AcDbLine
 10
-105.5002580383212
 20
-1.29714420849681
 30
0.0
 11
-105.5002580383212
 21
-1.29714420849681
 31
0.0
  0
LINE
  5
3A2
330
290
100
AcDbEntity
  8
0
 62
     0
100
AcDbLine
 10
-104.2485589008367
 20
-1.132354890818995
 30
0.0
 11
-104.2485589008367
 21
-1.132354890818995
 31
0.0
  0
LINE
  5
3A3
330
290
100
AcDbEntity
  8
0
 62
     0
100
AcDbLine
 10
-102.3548992156128
 20
-0.8830498636786966
 30
0.0
 11
-102.3548992156128
 21
-0.8830498636786966
 31
0.0
  0
LINE
  5
3A4
330
290
100
AcDbEntity
  8
0
 62
     0
100
AcDbLine
 10
-99.19714733213723
 20
-0.4673239414578325
 30
0.0
 11
-99.19714733213723
 21
-0.4673239414578325
 31
0.0
  0
LINE
  5
3A5
330
290
100
AcDbEntity
  8
0
 62
     0
100
AcDbLine
 10
-97.94544819465279
 20
-0.3025346237800173
 30
0.0
 11
-97.94544819465279
 21
-0.3025346237800173
 31
0.0
  0
LINE
  5
3A6
330
290
100
AcDbEntity
  8
0
 62
     0
100
AcDbLine
 10
-96.05178850942882
 20
-0.0532295966397188
 30
0.0
 11
-96.05178850942882
 21
-0.0532295966397188
 31
0.0
  0
LINE
  5
3A7
330
290
100
AcDbEntity
  8
0
 62
     0
100
AcDbLine
 10
-92.89403662595324
 20
0.3624963255811455
 30
0.0
 11
-92.89403662595324
 21
0.3624963255811455
 31
0.0
  0
LINE
  5
3A8
330
290
100
AcDbEntity
  8
0
 62
     0
100
AcDbLine
 10
-91.6423374884688
 20
0.5272856432589606
 30
0.0
 11
-91.6423374884688
 21
0.5272856432589606
 31
0.0
  0
LINE
  5
3A9
330
290
100
AcDbEntity
  8
0
 62
     0
100
AcDbLine
 10
-89.74867780324482
 20
0.776590670399259
 30
0.0
 11
-89.74867780324482
 21
0.776590670399259
 31
0.0
  0
LINE
  5
3AA
330
290
100
AcDbEntity
  8
0
 62
     0
100
AcDbLine
 10
-86.59092591976923
 20
1.192316592620123
 30
0.0
 11
-86.59092591976923
 21
1.192316592620123
 31
0.0
  0
LINE
  5
3AB
330
290
100
AcDbEntity
  8
0
 62
     0
100
AcDbLine
 10
-109.23632191981
 20
0.0098834015538255
 30
0.0
 11
-109.23632191981
 21
0.0098834015538255
 31
0.0
  0
LINE
  5
3AC
330
290
100
AcDbEntity
  8
0
 62
     0
100
AcDbLine
 10
-107.342662234586
 20
0.259188428694124
 30
0.0
 11
-107.342662234586
 21
0.259188428694124
 31
0.0
  0
LINE
  5
3AD
330
290
100
AcDbEntity
  8
0
 62
     0
100
AcDbLine
 10
-104.1849103511104
 20
0.6749143509149884
 30
0.0
 11
-104.1849103511104
 21
0.6749143509149884
 31
0.0
  0
LINE
  5
3AE
330
290
100
AcDbEntity
  8
0
 62
     0
100
AcDbLine
 10
-102.933211213626
 20
0.8397036685928034
 30
0.0
 11
-102.933211213626
 21
0.8397036685928034
 31
0.0
  0
LINE
  5
3AF
330
290
100
AcDbEntity
  8
0
 62
     0
100
AcDbLine
 10
-101.039551528402
 20
1.089008695733101
 30
0.0
 11
-101.039551528402
 21
1.089008695733101
 31
0.0
  0
LINE
  5
3B0
330
290
100
AcDbEntity
  8
0
 62
     0
100
AcDbLine
 10
-97.88179964492648
 20
1.504734617953966
 30
0.0
 11
-97.88179964492648
 21
1.504734617953966
 31
0.0
  0
LINE
  5
3B1
330
290
100
AcDbEntity
  8
0
 62
     0
100
AcDbLine
 10
-96.63010050744205
 20
1.669523935631781
 30
0.0
 11
-96.63010050744205
 21
1.669523935631781
 31
0.0
  0
LINE
  5
3B2
330
290
100
AcDbEntity
  8
0
 62
     0
100
AcDbLine
 10
-94.73644082221808
 20
1.918828962772079
 30
0.0
 11
-94.73644082221808
 21
1.918828962772079
 31
0.0
  0
LINE
  5
3B3
330
290
100
AcDbEntity
  8
0
 62
     0
100
AcDbLine
 10
-91.57868893874249
 20
2.334554884992944
 30
0.0
 11
-91.57868893874249
 21
2.334554884992944
 31
0.0
  0
LINE
  5
3B4
330
290
100
AcDbEntity
  8
0
 62
     0
100
AcDbLine
 10
-90.32698980125806
 20
2.499344202670759
 30
0.0
 11
-90.32698980125806
 21
2.499344202670759
 31
0.0
  0
LINE
  5
3B5
330
290
100
AcDbEntity
  8
0
 62
     0
100
AcDbLine
 10
-88.43333011603407
 20
2.748649229811057
 30
0.0
 11
-88.43333011603407
 21
2.748649229811057
 31
0.0
  0
LINE
  5
3B6
330
290
100
AcDbEntity
  8
0
 62
     0
100
AcDbLine
 10
-109.1726733700837
 20
1.81715264328781
 30
0.0
 11
-109.1726733700837
 21
1.81715264328781
 31
0.0
  0
LINE
  5
3B7
330
290
100
AcDbEntity
  8
0
 62
     0
100
AcDbLine
 10
-107.9209742325992
 20
1.981941960965625
 30
0.0
 11
-107.9209742325992
 21
1.981941960965625
 31
0.0
  0
LINE
  5
3B8
330
290
100
AcDbEntity
  8
0
 62
     0
100
AcDbLine
 10
-106.0273145473753
 20
2.231246988105923
 30
0.0
 11
-106.0273145473753
 21
2.231246988105923
 31
0.0
  0
LINE
  5
3B9
330
290
100
AcDbEntity
  8
0
 62
     0
100
AcDbLine
 10
-102.8695626638997
 20
2.646972910326788
 30
0.0
 11
-102.8695626638997
 21
2.646972910326788
 31
0.0
  0
LINE
  5
3BA
330
290
100
AcDbEntity
  8
0
 62
     0
100
AcDbLine
 10
-101.6178635264153
 20
2.811762228004603
 30
0.0
 11
-101.6178635264153
 21
2.811762228004603
 31
0.0
  0
LINE
  5
3BB
330
290
100
AcDbEntity
  8
0
 62
     0
100
AcDbLine
 10
-99.72420384119132
 20
3.061067255144901
 30
0.0
 11
-99.72420384119132
 21
3.061067255144901
 31
0.0
  0
LINE
  5
3BC
330
290
100
AcDbEntity
  8
0
 62
     0
100
AcDbLine
 10
-96.56645195771574
 20
3.476793177365765
 30
0.0
 11
-96.56645195771574
 21
3.476793177365765
 31
0.0
  0
LINE
  5
3BD
330
290
100
AcDbEntity
  8
0
 62
     0
100
AcDbLine
 10
-95.3147528202313
 20
3.64158249504358
 30
0.0
 11
-95.3147528202313
 21
3.64158249504358
 31
0.0
  0
LINE
  5
3BE
330
290
100
AcDbEntity
  8
0
 62
     0
100
AcDbLine
 10
-93.42109313500733
 20
3.890887522183879
 30
0.0
 11
-93.42109313500733
 21
3.890887522183879
 31
0.0
  0
LINE
  5
3BF
330
290
100
AcDbEntity
  8
0
 62
     0
100
AcDbLine
 10
-90.26334125153175
 20
4.306613444404743
 30
0.0
 11
-90.26334125153175
 21
4.306613444404743
 31
0.0
  0
LINE
  5
3C0
330
290
100
AcDbEntity
  8
0
 62
     0
100
AcDbLine
 10
-89.01164211404731
 20
4.471402762082559
 30
0.0
 11
-89.01164211404731
 21
4.471402762082559
 31
0.0
  0
LINE
  5
3C1
330
290
100
AcDbEntity
  8
0
 62
     0
100
AcDbLine
 10
-87.11798242882332
 20
4.720707789222857
 30
0.0
 11
-87.11798242882332
 21
4.720707789222857
 31
0.0
  0
LINE
  5
3C2
330
290
100
AcDbEntity
  8
0
 62
     0
100
AcDbLine
 10
-107.857325682873
 20
3.789211202699612
 30
0.0
 11
-107.857325682873
 21
3.789211202699612
 31
0.0
  0
LINE
  5
3C3
330
290
100
AcDbEntity
  8
0
 62
     0
100
AcDbLine
 10
-106.6056265453885
 20
3.954000520377427
 30
0.0
 11
-106.6056265453885
 21
3.954000520377427
 31
0.0
  0
LINE
  5
3C4
330
290
100
AcDbEntity
  8
0
 62
     0
100
AcDbLine
 10
-104.7119668601645
 20
4.203305547517725
 30
0.0
 11
-104.7119668601645
 21
4.203305547517725
 31
0.0
  0
LINE
  5
3C5
330
290
100
AcDbEntity
  8
0
 62
     0
100
AcDbLine
 10
-101.5542149766889
 20
4.619031469738589
 30
0.0
 11
-101.5542149766889
 21
4.619031469738589
 31
0.0
  0
LINE
  5
3C6
330
290
100
AcDbEntity
  8
0
 62
     0
100
AcDbLine
 10
-100.3025158392045
 20
4.783820787416405
 30
0.0
 11
-100.3025158392045
 21
4.783820787416405
 31
0.0
  0
LINE
  5
3C7
330
290
100
AcDbEntity
  8
0
 62
     0
100
AcDbLine
 10
-98.40885615398057
 20
5.033125814556703
 30
0.0
 11
-98.40885615398057
 21
5.033125814556703
 31
0.0
  0
LINE
  5
3C8
330
290
100
AcDbEntity
  8
0
 62
     0
100
AcDbLine
 10
-95.25110427050499
 20
5.448851736777568
 30
0.0
 11
-95.25110427050499
 21
5.448851736777568
 31
0.0
  0
LINE
  5
3C9
330
290
100
AcDbEntity
  8
0
 62
     0
100
AcDbLine
 10
-93.99940513302055
 20
5.613641054455383
 30
0.0
 11
-93.99940513302055
 21
5.613641054455383
 31
0.0
  0
LINE
  5
3CA
330
290
100
AcDbEntity
  8
0
 62
     0
100
AcDbLine
 10
-92.10574544779658
 20
5.862946081595682
 30
0.0
 11
-92.10574544779658
 21
5.862946081595682
 31
0.0
  0
LINE
  5
3CB
330
290
100
AcDbEntity
  8
0
 62
     0
100
AcDbLine
 10
-88.947993564321
 20
6.278672003816546
 30
0.0
 11
-88.947993564321
 21
6.278672003816546
 31
0.0
  0
LINE
  5
3CC
330
290
100
AcDbEntity
  8
0
 62
     0
100
AcDbLine
 10
-87.69629442683656
 20
6.443461321494361
 30
0.0
 11
-87.69629442683656
 21
6.443461321494361
 31
0.0
  0
LINE
  5
3CD
330
290
100
AcDbEntity
  8
0
 62
     0
100
AcDbLine
 10
-109.6997298791378
 20
5.34554383989055
 30
0.0
 11
-109.6997298791378
 21
5.34554383989055
 31
0.0
  0
LINE
  5
3CE
330
290
100
AcDbEntity
  8
0
 62
     0
100
AcDbLine
 10
-106.5419779956622
 20
5.761269762111414
 30
0.0
 11
-106.5419779956622
 21
5.761269762111414
 31
0.0
  0
LINE
  5
3CF
330
290
100
AcDbEntity
  8
0
 62
     0
100
AcDbLine
 10
-105.2902788581778
 20
5.926059079789229
 30
0.0
 11
-105.2902788581778
 21
5.926059079789229
 31
0.0
  0
LINE
  5
3D0
330
290
100
AcDbEntity
  8
0
 62
     0
100
AcDbLine
 10
-103.3966191729538
 20
6.175364106929528
 30
0.0
 11
-103.3966191729538
 21
6.175364106929528
 31
0.0
  0
LINE
  5
3D1
330
290
100
AcDbEntity
  8
0
 62
     0
100
AcDbLine
 10
-100.2388672894782
 20
6.591090029150392
 30
0.0
 11
-100.2388672894782
 21
6.591090029150392
 31
0.0
  0
LINE
  5
3D2
330
290
100
AcDbEntity
  8
0
 62
     0
100
AcDbLine
 10
-98.98716815199382
 20
6.755879346828208
 30
0.0
 11
-98.98716815199382
 21
6.755879346828208
 31
0.0
  0
LINE
  5
3D3
330
290
100
AcDbEntity
  8
0
 62
     0
100
AcDbLine
 10
-109.9733576090075
 20
-3.684928690129475
 30
0.0
 11
-109.9733576090075
 21
-3.684928690129475
 31
0.0
  0
LINE
  5
3D4
330
290
100
AcDbEntity
  8
0
 62
     0
100
AcDbLine
 10
-106.8156057255319
 20
-3.269202767908611
 30
0.0
 11
-106.8156057255319
 21
-3.269202767908611
 31
0.0
  0
LINE
  5
3D5
330
290
100
AcDbEntity
  8
0
 62
     0
100
AcDbLine
 10
-105.5639065880475
 20
-3.104413450230796
 30
0.0
 11
-105.5639065880475
 21
-3.104413450230796
 31
0.0
  0
LINE
  5
3D6
330
290
100
AcDbEntity
  8
0
 62
     0
100
AcDbLine
 10
-103.6702469028235
 20
-2.855108423090498
 30
0.0
 11
-103.6702469028235
 21
-2.855108423090498
 31
0.0
  0
LINE
  5
3D7
330
290
100
AcDbEntity
  8
0
 62
     0
100
AcDbLine
 10
-100.5124950193479
 20
-2.439382500869633
 30
0.0
 11
-100.5124950193479
 21
-2.439382500869633
 31
0.0
  0
LINE
  5
3D8
330
290
100
AcDbEntity
  8
0
 62
     0
100
AcDbLine
 10
-99.26079588186354
 20
-2.274593183191818
 30
0.0
 11
-99.26079588186354
 21
-2.274593183191818
 31
0.0
  0
LINE
  5
3D9
330
290
100
AcDbEntity
  8
0
 62
     0
100
AcDbLine
 10
-97.36713619663957
 20
-2.02528815605152
 30
0.0
 11
-97.36713619663957
 21
-2.02528815605152
 31
0.0
  0
LINE
  5
3DA
330
290
100
AcDbEntity
  8
0
 62
     0
100
AcDbLine
 10
-94.20938431316399
 20
-1.609562233830656
 30
0.0
 11
-94.20938431316399
 21
-1.609562233830656
 31
0.0
  0
LINE
  5
3DB
330
290
100
AcDbEntity
  8
0
 62
     0
100
AcDbLine
 10
-92.95768517567955
 20
-1.444772916152841
 30
0.0
 11
-92.95768517567955
 21
-1.444772916152841
 31
0.0
  0
LINE
  5
3DC
330
290
100
AcDbEntity
  8
0
 62
     0
100
AcDbLine
 10
-91.06402549045556
 20
-1.195467889012542
 30
0.0
 11
-91.06402549045556
 21
-1.195467889012542
 31
0.0
  0
LINE
  5
3DD
330
290
100
AcDbEntity
  8
0
 62
     0
100
AcDbLine
 10
-87.90627360697998
 20
-0.7797419667916783
 30
0.0
 11
-87.90627360697998
 21
-0.7797419667916783
 31
0.0
  0
LINE
  5
3DE
330
290
100
AcDbEntity
  8
0
 62
     0
100
AcDbLine
 10
-86.65457446949554
 20
-0.6149526491138632
 30
0.0
 11
-86.65457446949554
 21
-0.6149526491138632
 31
0.0
  0
LINE
  5
3DF
330
290
100
AcDbEntity
  8
0
 62
     0
100
AcDbLine
 10
-108.1309534127427
 20
-5.241261327320414
 30
0.0
 11
-108.1309534127427
 21
-5.241261327320414
 31
0.0
  0
LINE
  5
3E0
330
290
100
AcDbEntity
  8
0
 62
     0
100
AcDbLine
 10
-106.8792542752582
 20
-5.076472009642598
 30
0.0
 11
-106.8792542752582
 21
-5.076472009642598
 31
0.0
  0
LINE
  5
3E1
330
290
100
AcDbEntity
  8
0
 62
     0
100
AcDbLine
 10
-104.9855945900342
 20
-4.8271669825023
 30
0.0
 11
-104.9855945900342
 21
-4.8271669825023
 31
0.0
  0
LINE
  5
3E2
330
290
100
AcDbEntity
  8
0
 62
     0
100
AcDbLine
 10
-101.8278427065587
 20
-4.411441060281435
 30
0.0
 11
-101.8278427065587
 21
-4.411441060281435
 31
0.0
  0
LINE
  5
3E3
330
290
100
AcDbEntity
  8
0
 62
     0
100
AcDbLine
 10
-100.5761435690742
 20
-4.24665174260362
 30
0.0
 11
-100.5761435690742
 21
-4.24665174260362
 31
0.0
  0
LINE
  5
3E4
330
290
100
AcDbEntity
  8
0
 62
     0
100
AcDbLine
 10
-98.6824838838503
 20
-3.997346715463321
 30
0.0
 11
-98.6824838838503
 21
-3.997346715463321
 31
0.0
  0
LINE
  5
3E5
330
290
100
AcDbEntity
  8
0
 62
     0
100
AcDbLine
 10
-95.52473200037471
 20
-3.581620793242457
 30
0.0
 11
-95.52473200037471
 21
-3.581620793242457
 31
0.0
  0
LINE
  5
3E6
330
290
100
AcDbEntity
  8
0
 62
     0
100
AcDbLine
 10
-94.27303286289028
 20
-3.416831475564642
 30
0.0
 11
-94.27303286289028
 21
-3.416831475564642
 31
0.0
  0
LINE
  5
3E7
330
290
100
AcDbEntity
  8
0
 62
     0
100
AcDbLine
 10
-92.37937317766629
 20
-3.167526448424343
 30
0.0
 11
-92.37937317766629
 21
-3.167526448424343
 31
0.0
  0
LINE
  5
3E8
330
290
100
AcDbEntity
  8
0
 62
     0
100
AcDbLine
 10
-89.22162129419071
 20
-2.751800526203479
 30
0.0
 11
-89.22162129419071
 21
-2.751800526203479
 31
0.0
  0
LINE
  5
3E9
330
290
100
AcDbEntity
  8
0
 62
     0
100
AcDbLine
 10
-87.96992215670627
 20
-2.587011208525664
 30
0.0
 11
-87.96992215670627
 21
-2.587011208525664
 31
0.0
  0
LINE
  5
3EA
330
290
100
AcDbEntity
  8
0
 62
     0
100
AcDbLine
 10
-103.1431903937694
 20
-6.383499619693237
 30
0.0
 11
-103.1431903937694
 21
-6.383499619693237
 31
0.0
  0
LINE
  5
3EB
330
290
100
AcDbEntity
  8
0
 62
     0
100
AcDbLine
 10
-101.891491256285
 20
-6.218710302015422
 30
0.0
 11
-101.891491256285
 21
-6.218710302015422
 31
0.0
  0
LINE
  5
3EC
330
290
100
AcDbEntity
  8
0
 62
     0
100
AcDbLine
 10
-99.99783157106106
 20
-5.969405274875123
 30
0.0
 11
-99.99783157106106
 21
-5.969405274875123
 31
0.0
  0
LINE
  5
3ED
330
290
100
AcDbEntity
  8
0
 62
     0
100
AcDbLine
 10
-96.84007968758548
 20
-5.553679352654259
 30
0.0
 11
-96.84007968758548
 21
-5.553679352654259
 31
0.0
  0
LINE
  5
3EE
330
290
100
AcDbEntity
  8
0
 62
     0
100
AcDbLine
 10
-95.58838055010104
 20
-5.388890034976443
 30
0.0
 11
-95.58838055010104
 21
-5.388890034976443
 31
0.0
  0
LINE
  5
3EF
330
290
100
AcDbEntity
  8
0
 62
     0
100
AcDbLine
 10
-93.69472086487705
 20
-5.139585007836145
 30
0.0
 11
-93.69472086487705
 21
-5.139585007836145
 31
0.0
  0
LINE
  5
3F0
330
290
100
AcDbEntity
  8
0
 62
     0
100
AcDbLine
 10
-90.53696898140147
 20
-4.723859085615281
 30
0.0
 11
-90.53696898140147
 21
-4.723859085615281
 31
0.0
  0
LINE
  5
3F1
330
290
100
AcDbEntity
  8
0
 62
     0
100
AcDbLine
 10
-89.28526984391703
 20
-4.559069767937465
 30
0.0
 11
-89.28526984391703
 21
-4.559069767937465
 31
0.0
  0
LINE
  5
3F2
330
290
100
AcDbEntity
  8
0
 62
     0
100
AcDbLine
 10
-87.39161015869305
 20
-4.309764740797167
 30
0.0
 11
-87.39161015869305
 21
-4.309764740797167
 31
0.0
  0
LINE
  5
3F3
330
290
100
AcDbEntity
  8
0
 62
     0
100
AcDbLine
 10
-90.60061753112776
 20
-6.531128327349265
 30
0.0
 11
-90.60061753112776
 21
-6.531128327349265
 31
0.0
  0
LINE
  5
3F4
330
290
100
AcDbEntity
  8
0
 62
     0
100
AcDbLine
 10
-88.70695784590379
 20
-6.281823300208967
 30
0.0
 11
-88.70695784590379
 21
-6.281823300208967
 31
0.0
  0
LINE
  5
3F5
330
290
100
AcDbEntity
  8
0
 62
     0
100
AcDbLine
 10
-105.2103750536197
 20
4.398199988204059
 30
0.0
 11
-105.2103750536197
 21
4.398199988204059
 31
0.0
  0
LINE
  5
3F6
330
290
100
AcDbEntity
  8
0
 62
     0
100
AcDbLine
 10
-104.1561357463536
 20
3.726575477770529
 30
0.0
 11
-104.1561357463536
 21
3.726575477770529
 31
0.0
  0
LINE
  5
3F7
330
290
100
AcDbEntity
  8
0
 62
     0
100
AcDbLine
 10
-100.8669091076833
 20
1.631107005217916
 30
0.0
 11
-100.8669091076833
 21
1.631107005217916
 31
0.0
  0
LINE
  5
3F8
330
290
100
AcDbEntity
  8
0
 62
     0
100
AcDbLine
 10
-96.50235837560172
 20
-1.149418467976897
 30
0.0
 11
-96.50235837560172
 21
-1.149418467976897
 31
0.0
  0
LINE
  5
3F9
330
290
100
AcDbEntity
  8
0
 62
     0
100
AcDbLine
 10
-95.44811906833562
 20
-1.821042978410428
 30
0.0
 11
-95.44811906833562
 21
-1.821042978410428
 31
0.0
  0
LINE
  5
3FA
330
290
100
AcDbEntity
  8
0
 62
     0
100
AcDbLine
 10
-92.15889242966536
 20
-3.916511450963041
 30
0.0
 11
-92.15889242966536
 21
-3.916511450963041
 31
0.0
  0
LINE
  5
3FB
330
290
100
AcDbEntity
  8
0
 62
     0
100
AcDbLine
 10
-102.5412628727577
 20
4.285425629532159
 30
0.0
 11
-102.5412628727577
 21
4.285425629532159
 31
0.0
  0
LINE
  5
3FC
330
290
100
AcDbEntity
  8
0
 62
     0
100
AcDbLine
 10
-101.4870235654916
 20
3.613801119098629
 30
0.0
 11
-101.4870235654916
 21
3.613801119098629
 31
0.0
  0
LINE
  5
3FD
330
290
100
AcDbEntity
  8
0
 62
     0
100
AcDbLine
 10
-98.19779692682136
 20
1.518332646546016
 30
0.0
 11
-98.19779692682136
 21
1.518332646546016
 31
0.0
  0
LINE
  5
3FE
330
290
100
AcDbEntity
  8
0
 62
     0
100
AcDbLine
 10
-93.83324619473967
 20
-1.262192826648798
 30
0.0
 11
-93.83324619473967
 21
-1.262192826648798
 31
0.0
  0
LINE
  5
3FF
330
290
100
AcDbEntity
  8
0
 62
     0
100
AcDbLine
 10
-92.77900688747356
 20
-1.933817337082328
 30
0.0
 11
-92.77900688747356
 21
-1.933817337082328
 31
0.0
  0
LINE
  5
400
330
290
100
AcDbEntity
  8
0
 62
     0
100
AcDbLine
 10
-89.48978024880331
 20
-4.029285809634941
 30
0.0
 11
-89.48978024880331
 21
-4.029285809634941
 31
0.0
  0
LINE
  5
401
330
290
100
AcDbEntity
  8
0
 62
     0
100
AcDbLine
 10
-99.87215069189566
 20
4.172651270860266
 30
0.0
 11
-99.87215069189566
 21
4.172651270860266
 31
0.0
  0
LINE
  5
402
330
290
100
AcDbEntity
  8
0
 62
     0
100
AcDbLine
 10
-98.81791138462958
 20
3.501026760426736
 30
0.0
 11
-98.81791138462958
 21
3.501026760426736
 31
0.0
  0
LINE
  5
403
330
290
100
AcDbEntity
  8
0
 62
     0
100
AcDbLine
 10
-95.5286847459593
 20
1.405558287874123
 30
0.0
 11
-95.5286847459593
 21
1.405558287874123
 31
0.0
  0
LINE
  5
404
330
290
100
AcDbEntity
  8
0
 62
     0
100
AcDbLine
 10
-91.16413401387763
 20
-1.374967185320691
 30
0.0
 11
-91.16413401387763
 21
-1.374967185320691
 31
0.0
  0
LINE
  5
405
330
290
100
AcDbEntity
  8
0
 62
     0
100
AcDbLine
 10
-90.10989470661153
 20
-2.046591695754221
 30
0.0
 11
-90.10989470661153
 21
-2.046591695754221
 31
0.0
  0
LINE
  5
406
330
290
100
AcDbEntity
  8
0
 62
     0
100
AcDbLine
 10
-86.82066806794127
 20
-4.142060168306834
 30
0.0
 11
-86.82066806794127
 21
-4.142060168306834
 31
0.0
  0
LINE
  5
407
330
290
100
AcDbEntity
  8
0
 62
     0
100
AcDbLine
 10
-97.20303851103363
 20
4.059876912188371
 30
0.0
 11
-97.20303851103363
 21
4.059876912188371
 31
0.0
  0
LINE
  5
408
330
290
100
AcDbEntity
  8
0
 62
     0
100
AcDbLine
 10
-96.14879920376752
 20
3.38825240175484
 30
0.0
 11
-96.14879920376752
 21
3.38825240175484
 31
0.0
  0
LINE
  5
409
330
290
100
AcDbEntity
  8
0
 62
     0
100
AcDbLine
 10
-92.85957256509727
 20
1.292783929202227
 30
0.0
 11
-92.85957256509727
 21
1.292783929202227
 31
0.0
  0
LINE
  5
40A
330
290
100
AcDbEntity
  8
0
 62
     0
100
AcDbLine
 10
-88.49502183301558
 20
-1.487741543992586
 30
0.0
 11
-88.49502183301558
 21
-1.487741543992586
 31
0.0
  0
LINE
  5
40B
330
290
100
AcDbEntity
  8
0
 62
     0
100
AcDbLine
 10
-87.44078252574949
 20
-2.159366054426116
 30
0.0
 11
-87.44078252574949
 21
-2.159366054426116
 31
0.0
  0
LINE
  5
40C
330
290
100
AcDbEntity
  8
0
 62
     0
100
AcDbLine
 10
-98.89847706225326
 20
6.727628026711284
 30
0.0
 11
-98.89847706225326
 21
6.727628026711284
 31
0.0
  0
LINE
  5
40D
330
290
100
AcDbEntity
  8
0
 62
     0
100
AcDbLine
 10
-94.53392633017157
 20
3.94710255351647
 30
0.0
 11
-94.53392633017157
 21
3.94710255351647
 31
0.0
  0
LINE
  5
40E
330
290
100
AcDbEntity
  8
0
 62
     0
100
AcDbLine
 10
-93.47968702290549
 20
3.27547804308294
 30
0.0
 11
-93.47968702290549
 21
3.27547804308294
 31
0.0
  0
LINE
  5
40F
330
290
100
AcDbEntity
  8
0
 62
     0
100
AcDbLine
 10
-90.19046038423523
 20
1.180009570530327
 30
0.0
 11
-90.19046038423523
 21
1.180009570530327
 31
0.0
  0
LINE
  5
410
330
290
100
AcDbEntity
  8
0
 62
     0
100
AcDbLine
 10
-96.22936488139121
 20
6.614853668039383
 30
0.0
 11
-96.22936488139121
 21
6.614853668039383
 31
0.0
  0
LINE
  5
411
330
290
100
AcDbEntity
  8
0
 62
     0
100
AcDbLine
 10
-91.86481414930952
 20
3.834328194844569
 30
0.0
 11
-91.86481414930952
 21
3.834328194844569
 31
0.0
  0
LINE
  5
412
330
290
100
AcDbEntity
  8
0
 62
     0
100
AcDbLine
 10
-90.81057484204341
 20
3.162703684411039
 30
0.0
 11
-90.81057484204341
 21
3.162703684411039
 31
0.0
  0
LINE
  5
413
330
290
100
AcDbEntity
  8
0
 62
     0
100
AcDbLine
 10
-87.52134820337316
 20
1.067235211858426
 30
0.0
 11
-87.52134820337316
 21
1.067235211858426
 31
0.0
  0
LINE
  5
414
330
290
100
AcDbEntity
  8
0
 62
     0
100
AcDbLine
 10
-93.56025270052917
 20
6.502079309367476
 30
0.0
 11
-93.56025270052917
 21
6.502079309367476
 31
0.0
  0
LINE
  5
415
330
290
100
AcDbEntity
  8
0
 62
     0
100
AcDbLine
 10
-89.1957019684475
 20
3.721553836172662
 30
0.0
 11
-89.1957019684475
 21
3.721553836172662
 31
0.0
  0
LINE
  5
416
330
290
100
AcDbEntity
  8
0
 62
     0
100
AcDbLine
 10
-88.1414626611814
 20
3.049929325739132
 30
0.0
 11
-88.1414626611814
 21
3.049929325739132
 31
0.0
  0
LINE
  5
417
330
290
100
AcDbEntity
  8
0
 62
     0
100
AcDbLine
 10
-90.89114051966712
 20
6.389304950695582
 30
0.0
 11
-90.89114051966712
 21
6.389304950695582
 31
0.0
  0
LINE
  5
418
330
290
100
AcDbEntity
  8
0
 62
     0
100
AcDbLine
 10
-86.52658978758543
 20
3.608779477500768
 30
0.0
 11
-86.52658978758543
 21
3.608779477500768
 31
0.0
  0
LINE
  5
419
330
290
100
AcDbEntity
  8
0
 62
     0
100
AcDbLine
 10
-88.22202833880508
 20
6.276530592023682
 30
0.0
 11
-88.22202833880508
 21
6.276530592023682
 31
0.0
  0
LINE
  5
41A
330
290
100
AcDbEntity
  8
0
 62
     0
100
AcDbLine
 10
-107.8794872344817
 20
4.510974346875961
 30
0.0
 11
-107.8794872344817
 21
4.510974346875961
 31
0.0
  0
LINE
  5
41B
330
290
100
AcDbEntity
  8
0
 62
     0
100
AcDbLine
 10
-106.8252479272157
 20
3.839349836442431
 30
0.0
 11
-106.8252479272157
 21
3.839349836442431
 31
0.0
  0
LINE
  5
41C
330
290
100
AcDbEntity
  8
0
 62
     0
100
AcDbLine
 10
-103.5360212885454
 20
1.743881363889818
 30
0.0
 11
-103.5360212885454
 21
1.743881363889818
 31
0.0
  0
LINE
  5
41D
330
290
100
AcDbEntity
  8
0
 62
     0
100
AcDbLine
 10
-99.17147055646376
 20
-1.036644109304996
 30
0.0
 11
-99.17147055646376
 21
-1.036644109304996
 31
0.0
  0
LINE
  5
41E
330
290
100
AcDbEntity
  8
0
 62
     0
100
AcDbLine
 10
-98.11723124919765
 20
-1.708268619738526
 30
0.0
 11
-98.11723124919765
 21
-1.708268619738526
 31
0.0
  0
LINE
  5
41F
330
290
100
AcDbEntity
  8
0
 62
     0
100
AcDbLine
 10
-94.8280046105274
 20
-3.803737092291139
 30
0.0
 11
-94.8280046105274
 21
-3.803737092291139
 31
0.0
  0
LINE
  5
420
330
290
100
AcDbEntity
  8
0
 62
     0
100
AcDbLine
 10
-90.46345387844572
 20
-6.584262565485953
 30
0.0
 11
-90.46345387844572
 21
-6.584262565485953
 31
0.0
  0
LINE
  5
421
330
290
100
AcDbEntity
  8
0
 62
     0
100
AcDbLine
 10
-109.4943601080777
 20
3.952124195114333
 30
0.0
 11
-109.4943601080777
 21
3.952124195114333
 31
0.0
  0
LINE
  5
422
330
290
100
AcDbEntity
  8
0
 62
     0
100
AcDbLine
 10
-106.2051334694074
 20
1.856655722561719
 30
0.0
 11
-106.2051334694074
 21
1.856655722561719
 31
0.0
  0
LINE
  5
423
330
290
100
AcDbEntity
  8
0
 62
     0
100
AcDbLine
 10
-101.8405827373258
 20
-0.9238697506330941
 30
0.0
 11
-101.8405827373258
 21
-0.9238697506330941
 31
0.0
  0
LINE
  5
424
330
290
100
AcDbEntity
  8
0
 62
     0
100
AcDbLine
 10
-100.7863434300596
 20
-1.595494261066624
 30
0.0
 11
-100.7863434300596
 21
-1.595494261066624
 31
0.0
  0
LINE
  5
425
330
290
100
AcDbEntity
  8
0
 62
     0
100
AcDbLine
 10
-97.49711679138945
 20
-3.690962733619237
 30
0.0
 11
-97.49711679138945
 21
-3.690962733619237
 31
0.0
  0
LINE
  5
426
330
290
100
AcDbEntity
  8
0
 62
     0
100
AcDbLine
 10
-93.13256605930776
 20
-6.471488206814052
 30
0.0
 11
-93.13256605930776
 21
-6.471488206814052
 31
0.0
  0
LINE
  5
427
330
290
100
AcDbEntity
  8
0
 62
     0
100
AcDbLine
 10
-108.8742456502695
 20
1.969430081233615
 30
0.0
 11
-108.8742456502695
 21
1.969430081233615
 31
0.0
  0
LINE
  5
428
330
290
100
AcDbEntity
  8
0
 62
     0
100
AcDbLine
 10
-104.5096949181878
 20
-0.811095391961199
 30
0.0
 11
-104.5096949181878
 21
-0.811095391961199
 31
0.0
  0
LINE
  5
429
330
290
100
AcDbEntity
  8
0
 62
     0
100
AcDbLine
 10
-103.4554556109217
 20
-1.482719902394729
 30
0.0
 11
-103.4554556109217
 21
-1.482719902394729
 31
0.0
  0
LINE
  5
42A
330
290
100
AcDbEntity
  8
0
 62
     0
100
AcDbLine
 10
-100.1662289722514
 20
-3.578188374947342
 30
0.0
 11
-100.1662289722514
 21
-3.578188374947342
 31
0.0
  0
LINE
  5
42B
330
290
100
AcDbEntity
  8
0
 62
     0
100
AcDbLine
 10
-95.8016782401698
 20
-6.358713848142156
 30
0.0
 11
-95.8016782401698
 21
-6.358713848142156
 31
0.0
  0
LINE
  5
42C
330
290
100
AcDbEntity
  8
0
 62
     0
100
AcDbLine
 10
-107.1788070990498
 20
-0.698321033289305
 30
0.0
 11
-107.1788070990498
 21
-0.698321033289305
 31
0.0
  0
LINE
  5
42D
330
290
100
AcDbEntity
  8
0
 62
     0
100
AcDbLine
 10
-106.1245677917837
 20
-1.369945543722834
 30
0.0
 11
-106.1245677917837
 21
-1.369945543722834
 31
0.0
  0
LINE
  5
42E
330
290
100
AcDbEntity
  8
0
 62
     0
100
AcDbLine
 10
-102.8353411531135
 20
-3.465414016275448
 30
0.0
 11
-102.8353411531135
 21
-3.465414016275448
 31
0.0
  0
LINE
  5
42F
330
290
100
AcDbEntity
  8
0
 62
     0
100
AcDbLine
 10
-98.47079042103185
 20
-6.245939489470262
 30
0.0
 11
-98.47079042103185
 21
-6.245939489470262
 31
0.0
  0
LINE
  5
430
330
290
100
AcDbEntity
  8
0
 62
     0
100
AcDbLine
 10
-109.8479192799119
 20
-0.5855466746174038
 30
0.0
 11
-109.8479192799119
 21
-0.5855466746174038
 31
0.0
  0
LINE
  5
431
330
290
100
AcDbEntity
  8
0
 62
     0
100
AcDbLine
 10
-108.7936799726458
 20
-1.257171185050933
 30
0.0
 11
-108.7936799726458
 21
-1.257171185050933
 31
0.0
  0
LINE
  5
432
330
290
100
AcDbEntity
  8
0
 62
     0
100
AcDbLine
 10
-105.5044533339755
 20
-3.352639657603547
 30
0.0
 11
-105.5044533339755
 21
-3.352639657603547
 31
0.0
  0
LINE
  5
433
330
290
100
AcDbEntity
  8
0
 62
     0
100
AcDbLine
 10
-101.1399026018938
 20
-6.133165130798361
 30
0.0
 11
-101.1399026018938
 21
-6.133165130798361
 31
0.0
  0
LINE
  5
434
330
290
100
AcDbEntity
  8
0
 62
     0
100
AcDbLine
 10
-108.1735655148376
 20
-3.239865298931637
 30
0.0
 11
-108.1735655148376
 21
-3.239865298931637
 31
0.0
  0
LINE
  5
435
330
290
100
AcDbEntity
  8
0
 62
     0
100
AcDbLine
 10
-103.8090147827559
 20
-6.020390772126451
 30
0.0
 11
-103.8090147827559
 21
-6.020390772126451
 31
0.0
  0
LINE
  5
436
330
290
100
AcDbEntity
  8
0
 62
     0
100
AcDbLine
 10
-106.478126963618
 20
-5.90761641345455
 30
0.0
 11
-106.478126963618
 21
-5.90761641345455
 31
0.0
  0
LINE
  5
437
330
290
100
AcDbEntity
  8
0
 62
     0
100
AcDbLine
 10
-105.4238876563518
 20
-6.57924092388808
 30
0.0
 11
-105.4238876563518
 21
-6.57924092388808
 31
0.0
  0
LINE
  5
438
330
290
100
AcDbEntity
  8
0
 62
     0
100
AcDbLine
 10
-109.14723914448
 20
-5.794842054782662
 30
0.0
 11
-109.14723914448
 21
-5.794842054782662
 31
0.0
  0
LINE
  5
439
330
290
100
AcDbEntity
  8
0
 62
     0
100
AcDbLine
 10
-108.0929998372139
 20
-6.466466565216192
 30
0.0
 11
-108.0929998372139
 21
-6.466466565216192
 31
0.0
  0
LINE
  5
43A
330
290
100
AcDbEntity
  8
0
 62
     0
100
AcDbLine
 10
-102.4155299386332
 20
6.709620250111888
 30
0.0
 11
-102.4155299386332
 21
6.709620250111888
 31
0.0
  0
LINE
  5
43B
330
290
100
AcDbEntity
  8
0
 62
     0
100
AcDbLine
 10
-100.5059816362949
 20
4.959841612387328
 30
0.0
 11
-100.5059816362949
 21
4.959841612387328
 31
0.0
  0
LINE
  5
43C
330
290
100
AcDbEntity
  8
0
 62
     0
100
AcDbLine
 10
-97.79648742351779
 20
2.477047599399777
 30
0.0
 11
-97.79648742351779
 21
2.477047599399777
 31
0.0
  0
LINE
  5
43D
330
290
100
AcDbEntity
  8
0
 62
     0
100
AcDbLine
 10
-96.59841175120135
 20
1.379213512024329
 30
0.0
 11
-96.59841175120135
 21
1.379213512024329
 31
0.0
  0
LINE
  5
43E
330
290
100
AcDbEntity
  8
0
 62
     0
100
AcDbLine
 10
-94.68886344886312
 20
-0.3705651257002307
 30
0.0
 11
-94.68886344886312
 21
-0.3705651257002307
 31
0.0
  0
LINE
  5
43F
330
290
100
AcDbEntity
  8
0
 62
     0
100
AcDbLine
 10
-91.97936923608592
 20
-2.853359138687781
 30
0.0
 11
-91.97936923608592
 21
-2.853359138687781
 31
0.0
  0
LINE
  5
440
330
290
100
AcDbEntity
  8
0
 62
     0
100
AcDbLine
 10
-90.78129356376946
 20
-3.951193226063229
 30
0.0
 11
-90.78129356376946
 21
-3.951193226063229
 31
0.0
  0
LINE
  5
441
330
290
100
AcDbEntity
  8
0
 62
     0
100
AcDbLine
 10
-88.87174526143125
 20
-5.700971863787789
 30
0.0
 11
-88.87174526143125
 21
-5.700971863787789
 31
0.0
  0
LINE
  5
442
330
290
100
AcDbEntity
  8
0
 62
     0
100
AcDbLine
 10
-97.59005078958306
 20
5.460366524048922
 30
0.0
 11
-97.59005078958306
 21
5.460366524048922
 31
0.0
  0
LINE
  5
443
330
290
100
AcDbEntity
  8
0
 62
     0
100
AcDbLine
 10
-94.88055657680586
 20
2.97757251106137
 30
0.0
 11
-94.88055657680586
 21
2.97757251106137
 31
0.0
  0
LINE
  5
444
330
290
100
AcDbEntity
  8
0
 62
     0
100
AcDbLine
 10
-93.68248090448942
 20
1.879738423685923
 30
0.0
 11
-93.68248090448942
 21
1.879738423685923
 31
0.0
  0
LINE
  5
445
330
290
100
AcDbEntity
  8
0
 62
     0
100
AcDbLine
 10
-91.77293260215119
 20
0.129959785961363
 30
0.0
 11
-91.77293260215119
 21
0.129959785961363
 31
0.0
  0
LINE
  5
446
330
290
100
AcDbEntity
  8
0
 62
     0
100
AcDbLine
 10
-89.06343838937399
 20
-2.352834227026188
 30
0.0
 11
-89.06343838937399
 21
-2.352834227026188
 31
0.0
  0
LINE
  5
447
330
290
100
AcDbEntity
  8
0
 62
     0
100
AcDbLine
 10
-87.86536271705754
 20
-3.450668314401636
 30
0.0
 11
-87.86536271705754
 21
-3.450668314401636
 31
0.0
  0
LINE
  5
448
330
290
100
AcDbEntity
  8
0
 62
     0
100
AcDbLine
 10
-94.67411994287113
 20
5.960891435710513
 30
0.0
 11
-94.67411994287113
 21
5.960891435710513
 31
0.0
  0
LINE
  5
449
330
290
100
AcDbEntity
  8
0
 62
     0
100
AcDbLine
 10
-91.96462573009393
 20
3.478097422722961
 30
0.0
 11
-91.96462573009393
 21
3.478097422722961
 31
0.0
  0
LINE
  5
44A
330
290
100
AcDbEntity
  8
0
 62
     0
100
AcDbLine
 10
-90.76655005777748
 20
2.380263335347513
 30
0.0
 11
-90.76655005777748
 21
2.380263335347513
 31
0.0
  0
LINE
  5
44B
330
290
100
AcDbEntity
  8
0
 62
     0
100
AcDbLine
 10
-88.85700175543925
 20
0.6304846976229542
 30
0.0
 11
-88.85700175543925
 21
0.6304846976229542
 31
0.0
  0
LINE
  5
44C
330
290
100
AcDbEntity
  8
0
 62
     0
100
AcDbLine
 10
-91.75818909615918
 20
6.461416347372102
 30
0.0
 11
-91.75818909615918
 21
6.461416347372102
 31
0.0
  0
LINE
  5
44D
330
290
100
AcDbEntity
  8
0
 62
     0
100
AcDbLine
 10
-89.04869488338198
 20
3.978622334384551
 30
0.0
 11
-89.04869488338198
 21
3.978622334384551
 31
0.0
  0
LINE
  5
44E
330
290
100
AcDbEntity
  8
0
 62
     0
100
AcDbLine
 10
-87.85061921106553
 20
2.880788247009103
 30
0.0
 11
-87.85061921106553
 21
2.880788247009103
 31
0.0
  0
LINE
  5
44F
330
290
100
AcDbEntity
  8
0
 62
     0
100
AcDbLine
 10
-105.3314607853451
 20
6.209095338450306
 30
0.0
 11
-105.3314607853451
 21
6.209095338450306
 31
0.0
  0
LINE
  5
450
330
290
100
AcDbEntity
  8
0
 62
     0
100
AcDbLine
 10
-103.4219124830069
 20
4.459316700725746
 30
0.0
 11
-103.4219124830069
 21
4.459316700725746
 31
0.0
  0
LINE
  5
451
330
290
100
AcDbEntity
  8
0
 62
     0
100
AcDbLine
 10
-100.7124182702297
 20
1.976522687738194
 30
0.0
 11
-100.7124182702297
 21
1.976522687738194
 31
0.0
  0
LINE
  5
452
330
290
100
AcDbEntity
  8
0
 62
     0
100
AcDbLine
 10
-99.51434259791327
 20
0.878688600362747
 30
0.0
 11
-99.51434259791327
 21
0.878688600362747
 31
0.0
  0
LINE
  5
453
330
290
100
AcDbEntity
  8
0
 62
     0
100
AcDbLine
 10
-97.60479429557506
 20
-0.8710900373618127
 30
0.0
 11
-97.60479429557506
 21
-0.8710900373618127
 31
0.0
  0
LINE
  5
454
330
290
100
AcDbEntity
  8
0
 62
     0
100
AcDbLine
 10
-94.89530008279784
 20
-3.353884050349364
 30
0.0
 11
-94.89530008279784
 21
-3.353884050349364
 31
0.0
  0
LINE
  5
455
330
290
100
AcDbEntity
  8
0
 62
     0
100
AcDbLine
 10
-93.69722441048139
 20
-4.451718137724811
 30
0.0
 11
-93.69722441048139
 21
-4.451718137724811
 31
0.0
  0
LINE
  5
456
330
290
100
AcDbEntity
  8
0
 62
     0
100
AcDbLine
 10
-91.78767610814317
 20
-6.201496775449371
 30
0.0
 11
-91.78767610814317
 21
-6.201496775449371
 31
0.0
  0
LINE
  5
457
330
290
100
AcDbEntity
  8
0
 62
     0
100
AcDbLine
 10
-108.247391632057
 20
5.708570426788722
 30
0.0
 11
-108.247391632057
 21
5.708570426788722
 31
0.0
  0
LINE
  5
458
330
290
100
AcDbEntity
  8
0
 62
     0
100
AcDbLine
 10
-106.3378433297188
 20
3.958791789064162
 30
0.0
 11
-106.3378433297188
 21
3.958791789064162
 31
0.0
  0
LINE
  5
459
330
290
100
AcDbEntity
  8
0
 62
     0
100
AcDbLine
 10
-103.6283491169416
 20
1.475997776076611
 30
0.0
 11
-103.6283491169416
 21
1.475997776076611
 31
0.0
  0
LINE
  5
45A
330
290
100
AcDbEntity
  8
0
 62
     0
100
AcDbLine
 10
-102.4302734446251
 20
0.3781636887011635
 30
0.0
 11
-102.4302734446251
 21
0.3781636887011635
 31
0.0
  0
LINE
  5
45B
330
290
100
AcDbEntity
  8
0
 62
     0
100
AcDbLine
 10
-100.5207251422869
 20
-1.371614949023396
 30
0.0
 11
-100.5207251422869
 21
-1.371614949023396
 31
0.0
  0
LINE
  5
45C
330
290
100
AcDbEntity
  8
0
 62
     0
100
AcDbLine
 10
-97.81123092950977
 20
-3.854408962010947
 30
0.0
 11
-97.81123092950977
 21
-3.854408962010947
 31
0.0
  0
LINE
  5
45D
330
290
100
AcDbEntity
  8
0
 62
     0
100
AcDbLine
 10
-96.61315525719331
 20
-4.952243049386395
 30
0.0
 11
-96.61315525719331
 21
-4.952243049386395
 31
0.0
  0
LINE
  5
45E
330
290
100
AcDbEntity
  8
0
 62
     0
100
AcDbLine
 10
-109.2537741764307
 20
3.458266877402563
 30
0.0
 11
-109.2537741764307
 21
3.458266877402563
 31
0.0
  0
LINE
  5
45F
330
290
100
AcDbEntity
  8
0
 62
     0
100
AcDbLine
 10
-106.5442799636535
 20
0.9754728644150121
 30
0.0
 11
-106.5442799636535
 21
0.9754728644150121
 31
0.0
  0
LINE
  5
460
330
290
100
AcDbEntity
  8
0
 62
     0
100
AcDbLine
 10
-105.3462042913371
 20
-0.1223612229604357
 30
0.0
 11
-105.3462042913371
 21
-0.1223612229604357
 31
0.0
  0
LINE
  5
461
330
290
100
AcDbEntity
  8
0
 62
     0
100
AcDbLine
 10
-103.4366559889989
 20
-1.872139860684995
 30
0.0
 11
-103.4366559889989
 21
-1.872139860684995
 31
0.0
  0
LINE
  5
462
330
290
100
AcDbEntity
  8
0
 62
     0
100
AcDbLine
 10
-100.7271617762217
 20
-4.354933873672546
 30
0.0
 11
-100.7271617762217
 21
-4.354933873672546
 31
0.0
  0
LINE
  5
463
330
290
100
AcDbEntity
  8
0
 62
     0
100
AcDbLine
 10
-99.52908610390526
 20
-5.452767961047994
 30
0.0
 11
-99.52908610390526
 21
-5.452767961047994
 31
0.0
  0
LINE
  5
464
330
290
100
AcDbEntity
  8
0
 62
     0
100
AcDbLine
 10
-109.4602108103655
 20
0.474947952753425
 30
0.0
 11
-109.4602108103655
 21
0.474947952753425
 31
0.0
  0
LINE
  5
465
330
290
100
AcDbEntity
  8
0
 62
     0
100
AcDbLine
 10
-108.262135138049
 20
-0.6228861346220228
 30
0.0
 11
-108.262135138049
 21
-0.6228861346220228
 31
0.0
  0
LINE
  5
466
330
290
100
AcDbEntity
  8
0
 62
     0
100
AcDbLine
 10
-106.3525868357108
 20
-2.372664772346582
 30
0.0
 11
-106.3525868357108
 21
-2.372664772346582
 31
0.0
  0
LINE
  5
467
330
290
100
AcDbEntity
  8
0
 62
     0
100
AcDbLine
 10
-103.6430926229336
 20
-4.855458785334134
 30
0.0
 11
-103.6430926229336
 21
-4.855458785334134
 31
0.0
  0
LINE
  5
468
330
290
100
AcDbEntity
  8
0
 62
     0
100
AcDbLine
 10
-102.4450169506171
 20
-5.953292872709582
 30
0.0
 11
-102.4450169506171
 21
-5.953292872709582
 31
0.0
  0
LINE
  5
469
330
290
100
AcDbEntity
  8
0
 62
     0
100
AcDbLine
 10
-109.2685176824227
 20
-2.873189684008169
 30
0.0
 11
-109.2685176824227
 21
-2.873189684008169
 31
0.0
  0
LINE
  5
46A
330
290
100
AcDbEntity
  8
0
 62
     0
100
AcDbLine
 10
-106.5590234696455
 20
-5.35598369699572
 30
0.0
 11
-106.5590234696455
 21
-5.35598369699572
 31
0.0
  0
LINE
  5
46B
330
290
100
AcDbEntity
  8
0
 62
     0
100
AcDbLine
 10
-105.3609477973291
 20
-6.453817784371168
 30
0.0
 11
-105.3609477973291
 21
-6.453817784371168
 31
0.0
  0
LINE
  5
46C
330
290
100
AcDbEntity
  8
0
 62
     0
100
AcDbLine
 10
-109.4749543163574
 20
-5.856508608657312
 30
0.0
 11
-109.4749543163574
 21
-5.856508608657312
 31
0.0
  0
ENDBLK
  5
46E
330
290
100
AcDbEntity
  8
0
100
AcDbBlockEnd
  0
BLOCK
  5
586
330
46F
100
AcDbEntity
  8
0
100
AcDbBlockBegin
  2
*X5
 70
     1
 10
0.0
 20
0.0
 30
0.0
  3
*X5
  1

  0
LINE
  5
470
330
46F
100
AcDbEntity
  8
0
 62
     0
100
AcDbLine
 10
-115.520773006493
 20
54.0
 30
0.0
 11
-115.5
 21
54.0
 31
0.0
  0
LINE
  5
471
330
46F
100
AcDbEntity
  8
0
 62
     0
100
AcDbLine
 10
-114.0
 20
54.0
 30
0.0
 11
-112.5
 21
54.0
 31
0.0
  0
LINE
  5
472
330
46F
100
AcDbEntity
  8
0
 62
     0
100
AcDbLine
 10
-111.0
 20
54.0
 30
0.0
 11
-109.4999999999999
 21
54.0
 31
0.0
  0
LINE
  5
473
330
46F
100
AcDbEntity
  8
0
 62
     0
100
AcDbLine
 10
-108.0
 20
54.0
 30
0.0
 11
-106.4999999999999
 21
54.0
 31
0.0
  0
LINE
  5
474
330
46F
100
AcDbEntity
  8
0
 62
     0
100
AcDbLine
 10
-105.0
 20
54.0
 30
0.0
 11
-103.4999999999999
 21
54.0
 31
0.0
  0
LINE
  5
475
330
46F
100
AcDbEntity
  8
0
 62
     0
100
AcDbLine
 10
-115.5
 20
55.5
 30
0.0
 11
-114.0
 21
55.5
 31
0.0
  0
LINE
  5
476
330
46F
100
AcDbEntity
  8
0
 62
     0
100
AcDbLine
 10
-112.5
 20
55.5
 30
0.0
 11
-111.0
 21
55.5
 31
0.0
  0
LINE
  5
477
330
46F
100
AcDbEntity
  8
0
 62
     0
100
AcDbLine
 10
-109.5
 20
55.5
 30
0.0
 11
-108.0
 21
55.5
 31
0.0
  0
LINE
  5
478
330
46F
100
AcDbEntity
  8
0
 62
     0
100
AcDbLine
 10
-106.5
 20
55.5
 30
0.0
 11
-105.0
 21
55.5
 31
0.0
  0
LINE
  5
479
330
46F
100
AcDbEntity
  8
0
 62
     0
100
AcDbLine
 10
-103.5
 20
55.5
 30
0.0
 11
-103.4704744422446
 21
55.5
 31
0.0
  0
LINE
  5
47A
330
46F
100
AcDbEntity
  8
0
 62
     0
100
AcDbLine
 10
-117.0
 20
57.0
 30
0.0
 11
-115.5
 21
57.0
 31
0.0
  0
LINE
  5
47B
330
46F
100
AcDbEntity
  8
0
 62
     0
100
AcDbLine
 10
-114.0
 20
57.0
 30
0.0
 11
-112.5
 21
57.0
 31
0.0
  0
LINE
  5
47C
330
46F
100
AcDbEntity
  8
0
 62
     0
100
AcDbLine
 10
-111.0
 20
57.0
 30
0.0
 11
-109.4999999999999
 21
57.0
 31
0.0
  0
LINE
  5
47D
330
46F
100
AcDbEntity
  8
0
 62
     0
100
AcDbLine
 10
-108.0
 20
57.0
 30
0.0
 11
-106.4999999999999
 21
57.0
 31
0.0
  0
LINE
  5
47E
330
46F
100
AcDbEntity
  8
0
 62
     0
100
AcDbLine
 10
-105.0
 20
57.0
 30
0.0
 11
-103.4999999999999
 21
57.0
 31
0.0
  0
LINE
  5
47F
330
46F
100
AcDbEntity
  8
0
 62
     0
100
AcDbLine
 10
-117.7660098631683
 20
58.5
 30
0.0
 11
-116.9999999999999
 21
58.5
 31
0.0
  0
LINE
  5
480
330
46F
100
AcDbEntity
  8
0
 62
     0
100
AcDbLine
 10
-115.4999999999999
 20
58.5
 30
0.0
 11
-113.9999999999999
 21
58.5
 31
0.0
  0
LINE
  5
481
330
46F
100
AcDbEntity
  8
0
 62
     0
100
AcDbLine
 10
-112.4999999999999
 20
58.5
 30
0.0
 11
-110.9999999999999
 21
58.5
 31
0.0
  0
LINE
  5
482
330
46F
100
AcDbEntity
  8
0
 62
     0
100
AcDbLine
 10
-109.4999999999999
 20
58.5
 30
0.0
 11
-107.9999999999999
 21
58.5
 31
0.0
  0
LINE
  5
483
330
46F
100
AcDbEntity
  8
0
 62
     0
100
AcDbLine
 10
-106.4999999999999
 20
58.5
 30
0.0
 11
-104.9999999999999
 21
58.5
 31
0.0
  0
LINE
  5
484
330
46F
100
AcDbEntity
  8
0
 62
     0
100
AcDbLine
 10
-103.4999999999999
 20
58.5
 30
0.0
 11
-102.6314246805655
 21
58.5
 31
0.0
  0
LINE
  5
485
330
46F
100
AcDbEntity
  8
0
 62
     0
100
AcDbLine
 10
-117.0
 20
60.0
 30
0.0
 11
-115.5
 21
60.0
 31
0.0
  0
LINE
  5
486
330
46F
100
AcDbEntity
  8
0
 62
     0
100
AcDbLine
 10
-114.0
 20
60.0
 30
0.0
 11
-112.5
 21
60.0
 31
0.0
  0
LINE
  5
487
330
46F
100
AcDbEntity
  8
0
 62
     0
100
AcDbLine
 10
-111.0
 20
60.0
 30
0.0
 11
-109.5
 21
60.0
 31
0.0
  0
LINE
  5
488
330
46F
100
AcDbEntity
  8
0
 62
     0
100
AcDbLine
 10
-108.0
 20
60.0
 30
0.0
 11
-106.5
 21
60.0
 31
0.0
  0
LINE
  5
489
330
46F
100
AcDbEntity
  8
0
 62
     0
100
AcDbLine
 10
-105.0
 20
60.0
 30
0.0
 11
-103.5
 21
60.0
 31
0.0
  0
LINE
  5
48A
330
46F
100
AcDbEntity
  8
0
 62
     0
100
AcDbLine
 10
-118.3465432988496
 20
61.5
 30
0.0
 11
-117.0
 21
61.5
 31
0.0
  0
LINE
  5
48B
330
46F
100
AcDbEntity
  8
0
 62
     0
100
AcDbLine
 10
-115.5
 20
61.5
 30
0.0
 11
-114.0
 21
61.5
 31
0.0
  0
LINE
  5
48C
330
46F
100
AcDbEntity
  8
0
 62
     0
100
AcDbLine
 10
-112.5
 20
61.5
 30
0.0
 11
-111.0
 21
61.5
 31
0.0
  0
LINE
  5
48D
330
46F
100
AcDbEntity
  8
0
 62
     0
100
AcDbLine
 10
-109.5
 20
61.5
 30
0.0
 11
-108.0
 21
61.5
 31
0.0
  0
LINE
  5
48E
330
46F
100
AcDbEntity
  8
0
 62
     0
100
AcDbLine
 10
-106.5
 20
61.5
 30
0.0
 11
-105.0
 21
61.5
 31
0.0
  0
LINE
  5
48F
330
46F
100
AcDbEntity
  8
0
 62
     0
100
AcDbLine
 10
-103.5
 20
61.5
 30
0.0
 11
-103.4704744422447
 21
61.5
 31
0.0
  0
LINE
  5
490
330
46F
100
AcDbEntity
  8
0
 62
     0
100
AcDbLine
 10
-114.2636273485895
 20
52.5
 30
0.0
 11
-113.9999999999999
 21
52.5
 31
0.0
  0
LINE
  5
491
330
46F
100
AcDbEntity
  8
0
 62
     0
100
AcDbLine
 10
-112.4999999999999
 20
52.5
 30
0.0
 11
-110.9999999999999
 21
52.5
 31
0.0
  0
LINE
  5
492
330
46F
100
AcDbEntity
  8
0
 62
     0
100
AcDbLine
 10
-109.4999999999999
 20
52.5
 30
0.0
 11
-107.9999999999999
 21
52.5
 31
0.0
  0
LINE
  5
493
330
46F
100
AcDbEntity
  8
0
 62
     0
100
AcDbLine
 10
-106.4999999999999
 20
52.5
 30
0.0
 11
-104.9999999999999
 21
52.5
 31
0.0
  0
LINE
  5
494
330
46F
100
AcDbEntity
  8
0
 62
     0
100
AcDbLine
 10
-103.4999999999999
 20
52.5
 30
0.0
 11
-103.4704744422446
 21
52.5
 31
0.0
  0
LINE
  5
495
330
46F
100
AcDbEntity
  8
0
 62
     0
100
AcDbLine
 10
-112.5959664197742
 20
51.0
 30
0.0
 11
-112.5
 21
51.0
 31
0.0
  0
LINE
  5
496
330
46F
100
AcDbEntity
  8
0
 62
     0
100
AcDbLine
 10
-111.0
 20
51.0
 30
0.0
 11
-109.5
 21
51.0
 31
0.0
  0
LINE
  5
497
330
46F
100
AcDbEntity
  8
0
 62
     0
100
AcDbLine
 10
-108.0
 20
51.0
 30
0.0
 11
-106.5
 21
51.0
 31
0.0
  0
LINE
  5
498
330
46F
100
AcDbEntity
  8
0
 62
     0
100
AcDbLine
 10
-105.0
 20
51.0
 30
0.0
 11
-103.5
 21
51.0
 31
0.0
  0
LINE
  5
499
330
46F
100
AcDbEntity
  8
0
 62
     0
100
AcDbLine
 10
-109.4999999999999
 20
49.5
 30
0.0
 11
-108.0
 21
49.5
 31
0.0
  0
LINE
  5
49A
330
46F
100
AcDbEntity
  8
0
 62
     0
100
AcDbLine
 10
-106.4999999999999
 20
49.5
 30
0.0
 11
-105.0
 21
49.5
 31
0.0
  0
LINE
  5
49B
330
46F
100
AcDbEntity
  8
0
 62
     0
100
AcDbLine
 10
-103.4999999999999
 20
49.5
 30
0.0
 11
-102.6314246805656
 21
49.5
 31
0.0
  0
LINE
  5
49C
330
46F
100
AcDbEntity
  8
0
 62
     0
100
AcDbLine
 10
-104.9999999999999
 20
48.0
 30
0.0
 11
-103.4999999999999
 21
48.0
 31
0.0
  0
LINE
  5
49D
330
46F
100
AcDbEntity
  8
0
 62
     0
100
AcDbLine
 10
-115.9130874685726
 20
54.5625
 30
0.0
 11
-115.5
 21
54.5625
 31
0.0
  0
LINE
  5
49E
330
46F
100
AcDbEntity
  8
0
 62
     0
100
AcDbLine
 10
-114.0
 20
54.5625
 30
0.0
 11
-112.5
 21
54.5625
 31
0.0
  0
LINE
  5
49F
330
46F
100
AcDbEntity
  8
0
 62
     0
100
AcDbLine
 10
-111.0
 20
54.5625
 30
0.0
 11
-109.4999999999999
 21
54.5625
 31
0.0
  0
LINE
  5
4A0
330
46F
100
AcDbEntity
  8
0
 62
     0
100
AcDbLine
 10
-108.0
 20
54.5625
 30
0.0
 11
-106.4999999999999
 21
54.5625
 31
0.0
  0
LINE
  5
4A1
330
46F
100
AcDbEntity
  8
0
 62
     0
100
AcDbLine
 10
-105.0
 20
54.5625
 30
0.0
 11
-103.4999999999999
 21
54.5625
 31
0.0
  0
LINE
  5
4A2
330
46F
100
AcDbEntity
  8
0
 62
     0
100
AcDbLine
 10
-115.5
 20
56.0625
 30
0.0
 11
-114.0
 21
56.0625
 31
0.0
  0
LINE
  5
4A3
330
46F
100
AcDbEntity
  8
0
 62
     0
100
AcDbLine
 10
-112.5
 20
56.0625
 30
0.0
 11
-111.0
 21
56.0625
 31
0.0
  0
LINE
  5
4A4
330
46F
100
AcDbEntity
  8
0
 62
     0
100
AcDbLine
 10
-109.4999999999999
 20
56.0625
 30
0.0
 11
-108.0
 21
56.0625
 31
0.0
  0
LINE
  5
4A5
330
46F
100
AcDbEntity
  8
0
 62
     0
100
AcDbLine
 10
-106.4999999999999
 20
56.0625
 30
0.0
 11
-105.0
 21
56.0625
 31
0.0
  0
LINE
  5
4A6
330
46F
100
AcDbEntity
  8
0
 62
     0
100
AcDbLine
 10
-103.4999999999999
 20
56.0625
 30
0.0
 11
-103.4704744422446
 21
56.0625
 31
0.0
  0
LINE
  5
4A7
330
46F
100
AcDbEntity
  8
0
 62
     0
100
AcDbLine
 10
-117.0
 20
57.5625
 30
0.0
 11
-115.5
 21
57.5625
 31
0.0
  0
LINE
  5
4A8
330
46F
100
AcDbEntity
  8
0
 62
     0
100
AcDbLine
 10
-114.0
 20
57.5625
 30
0.0
 11
-112.5
 21
57.5625
 31
0.0
  0
LINE
  5
4A9
330
46F
100
AcDbEntity
  8
0
 62
     0
100
AcDbLine
 10
-111.0
 20
57.5625
 30
0.0
 11
-109.4999999999999
 21
57.5625
 31
0.0
  0
LINE
  5
4AA
330
46F
100
AcDbEntity
  8
0
 62
     0
100
AcDbLine
 10
-108.0
 20
57.5625
 30
0.0
 11
-106.4999999999999
 21
57.5625
 31
0.0
  0
LINE
  5
4AB
330
46F
100
AcDbEntity
  8
0
 62
     0
100
AcDbLine
 10
-105.0
 20
57.5625
 30
0.0
 11
-103.4999999999999
 21
57.5625
 31
0.0
  0
LINE
  5
4AC
330
46F
100
AcDbEntity
  8
0
 62
     0
100
AcDbLine
 10
-117.92415066687
 20
59.0625
 30
0.0
 11
-116.9999999999999
 21
59.0625
 31
0.0
  0
LINE
  5
4AD
330
46F
100
AcDbEntity
  8
0
 62
     0
100
AcDbLine
 10
-115.4999999999999
 20
59.0625
 30
0.0
 11
-113.9999999999999
 21
59.0625
 31
0.0
  0
LINE
  5
4AE
330
46F
100
AcDbEntity
  8
0
 62
     0
100
AcDbLine
 10
-112.4999999999999
 20
59.0625
 30
0.0
 11
-110.9999999999999
 21
59.0625
 31
0.0
  0
LINE
  5
4AF
330
46F
100
AcDbEntity
  8
0
 62
     0
100
AcDbLine
 10
-109.4999999999999
 20
59.0625
 30
0.0
 11
-107.9999999999999
 21
59.0625
 31
0.0
  0
LINE
  5
4B0
330
46F
100
AcDbEntity
  8
0
 62
     0
100
AcDbLine
 10
-106.4999999999999
 20
59.0625
 30
0.0
 11
-104.9999999999999
 21
59.0625
 31
0.0
  0
LINE
  5
4B1
330
46F
100
AcDbEntity
  8
0
 62
     0
100
AcDbLine
 10
-103.4999999999999
 20
59.0625
 30
0.0
 11
-103.4704744422446
 21
59.0625
 31
0.0
  0
LINE
  5
4B2
330
46F
100
AcDbEntity
  8
0
 62
     0
100
AcDbLine
 10
-117.0
 20
60.5625
 30
0.0
 11
-115.5
 21
60.5625
 31
0.0
  0
LINE
  5
4B3
330
46F
100
AcDbEntity
  8
0
 62
     0
100
AcDbLine
 10
-114.0
 20
60.5625
 30
0.0
 11
-112.5
 21
60.5625
 31
0.0
  0
LINE
  5
4B4
330
46F
100
AcDbEntity
  8
0
 62
     0
100
AcDbLine
 10
-111.0
 20
60.5625
 30
0.0
 11
-109.4999999999999
 21
60.5625
 31
0.0
  0
LINE
  5
4B5
330
46F
100
AcDbEntity
  8
0
 62
     0
100
AcDbLine
 10
-108.0
 20
60.5625
 30
0.0
 11
-106.4999999999999
 21
60.5625
 31
0.0
  0
LINE
  5
4B6
330
46F
100
AcDbEntity
  8
0
 62
     0
100
AcDbLine
 10
-105.0
 20
60.5625
 30
0.0
 11
-103.4999999999999
 21
60.5625
 31
0.0
  0
LINE
  5
4B7
330
46F
100
AcDbEntity
  8
0
 62
     0
100
AcDbLine
 10
-118.3858640805301
 20
62.0625
 30
0.0
 11
-117.0
 21
62.0625
 31
0.0
  0
LINE
  5
4B8
330
46F
100
AcDbEntity
  8
0
 62
     0
100
AcDbLine
 10
-115.5
 20
62.0625
 30
0.0
 11
-114.0
 21
62.0625
 31
0.0
  0
LINE
  5
4B9
330
46F
100
AcDbEntity
  8
0
 62
     0
100
AcDbLine
 10
-112.5
 20
62.0625
 30
0.0
 11
-111.0
 21
62.0625
 31
0.0
  0
LINE
  5
4BA
330
46F
100
AcDbEntity
  8
0
 62
     0
100
AcDbLine
 10
-109.5
 20
62.0625
 30
0.0
 11
-108.0
 21
62.0625
 31
0.0
  0
LINE
  5
4BB
330
46F
100
AcDbEntity
  8
0
 62
     0
100
AcDbLine
 10
-106.5
 20
62.0625
 30
0.0
 11
-105.0
 21
62.0625
 31
0.0
  0
LINE
  5
4BC
330
46F
100
AcDbEntity
  8
0
 62
     0
100
AcDbLine
 10
-103.5
 20
62.0625
 30
0.0
 11
-103.4704744422447
 21
62.0625
 31
0.0
  0
LINE
  5
4BD
330
46F
100
AcDbEntity
  8
0
 62
     0
100
AcDbLine
 10
-114.774835242182
 20
53.0625
 30
0.0
 11
-114.0
 21
53.0625
 31
0.0
  0
LINE
  5
4BE
330
46F
100
AcDbEntity
  8
0
 62
     0
100
AcDbLine
 10
-112.5
 20
53.0625
 30
0.0
 11
-111.0
 21
53.0625
 31
0.0
  0
LINE
  5
4BF
330
46F
100
AcDbEntity
  8
0
 62
     0
100
AcDbLine
 10
-109.4999999999999
 20
53.0625
 30
0.0
 11
-108.0
 21
53.0625
 31
0.0
  0
LINE
  5
4C0
330
46F
100
AcDbEntity
  8
0
 62
     0
100
AcDbLine
 10
-106.4999999999999
 20
53.0625
 30
0.0
 11
-105.0
 21
53.0625
 31
0.0
  0
LINE
  5
4C1
330
46F
100
AcDbEntity
  8
0
 62
     0
100
AcDbLine
 10
-103.4999999999999
 20
53.0625
 30
0.0
 11
-103.4704744422446
 21
53.0625
 31
0.0
  0
LINE
  5
4C2
330
46F
100
AcDbEntity
  8
0
 62
     0
100
AcDbLine
 10
-113.2816174575806
 20
51.5625
 30
0.0
 11
-112.5
 21
51.5625
 31
0.0
  0
LINE
  5
4C3
330
46F
100
AcDbEntity
  8
0
 62
     0
100
AcDbLine
 10
-111.0
 20
51.5625
 30
0.0
 11
-109.4999999999999
 21
51.5625
 31
0.0
  0
LINE
  5
4C4
330
46F
100
AcDbEntity
  8
0
 62
     0
100
AcDbLine
 10
-108.0
 20
51.5625
 30
0.0
 11
-106.4999999999999
 21
51.5625
 31
0.0
  0
LINE
  5
4C5
330
46F
100
AcDbEntity
  8
0
 62
     0
100
AcDbLine
 10
-105.0
 20
51.5625
 30
0.0
 11
-103.4999999999999
 21
51.5625
 31
0.0
  0
LINE
  5
4C6
330
46F
100
AcDbEntity
  8
0
 62
     0
100
AcDbLine
 10
-111.2311755342588
 20
50.0625
 30
0.0
 11
-110.9999999999999
 21
50.0625
 31
0.0
  0
LINE
  5
4C7
330
46F
100
AcDbEntity
  8
0
 62
     0
100
AcDbLine
 10
-109.4999999999999
 20
50.0625
 30
0.0
 11
-107.9999999999999
 21
50.0625
 31
0.0
  0
LINE
  5
4C8
330
46F
100
AcDbEntity
  8
0
 62
     0
100
AcDbLine
 10
-106.4999999999999
 20
50.0625
 30
0.0
 11
-104.9999999999999
 21
50.0625
 31
0.0
  0
LINE
  5
4C9
330
46F
100
AcDbEntity
  8
0
 62
     0
100
AcDbLine
 10
-103.4999999999999
 20
50.0625
 30
0.0
 11
-102.6314246805655
 21
50.0625
 31
0.0
  0
LINE
  5
4CA
330
46F
100
AcDbEntity
  8
0
 62
     0
100
AcDbLine
 10
-107.908766412339
 20
48.5625
 30
0.0
 11
-106.5
 21
48.5625
 31
0.0
  0
LINE
  5
4CB
330
46F
100
AcDbEntity
  8
0
 62
     0
100
AcDbLine
 10
-105.0
 20
48.5625
 30
0.0
 11
-103.5
 21
48.5625
 31
0.0
  0
LINE
  5
4CC
330
46F
100
AcDbEntity
  8
0
 62
     0
100
AcDbLine
 10
-116.2687059551672
 20
55.125
 30
0.0
 11
-115.5
 21
55.125
 31
0.0
  0
LINE
  5
4CD
330
46F
100
AcDbEntity
  8
0
 62
     0
100
AcDbLine
 10
-114.0
 20
55.125
 30
0.0
 11
-112.5
 21
55.125
 31
0.0
  0
LINE
  5
4CE
330
46F
100
AcDbEntity
  8
0
 62
     0
100
AcDbLine
 10
-111.0
 20
55.125
 30
0.0
 11
-109.4999999999999
 21
55.125
 31
0.0
  0
LINE
  5
4CF
330
46F
100
AcDbEntity
  8
0
 62
     0
100
AcDbLine
 10
-108.0
 20
55.125
 30
0.0
 11
-106.4999999999999
 21
55.125
 31
0.0
  0
LINE
  5
4D0
330
46F
100
AcDbEntity
  8
0
 62
     0
100
AcDbLine
 10
-105.0
 20
55.125
 30
0.0
 11
-103.4999999999999
 21
55.125
 31
0.0
  0
LINE
  5
4D1
330
46F
100
AcDbEntity
  8
0
 62
     0
100
AcDbLine
 10
-117.0586043976929
 20
56.625
 30
0.0
 11
-117.0
 21
56.625
 31
0.0
  0
LINE
  5
4D2
330
46F
100
AcDbEntity
  8
0
 62
     0
100
AcDbLine
 10
-115.5
 20
56.625
 30
0.0
 11
-114.0
 21
56.625
 31
0.0
  0
LINE
  5
4D3
330
46F
100
AcDbEntity
  8
0
 62
     0
100
AcDbLine
 10
-112.5
 20
56.625
 30
0.0
 11
-111.0
 21
56.625
 31
0.0
  0
LINE
  5
4D4
330
46F
100
AcDbEntity
  8
0
 62
     0
100
AcDbLine
 10
-109.4999999999999
 20
56.625
 30
0.0
 11
-108.0
 21
56.625
 31
0.0
  0
LINE
  5
4D5
330
46F
100
AcDbEntity
  8
0
 62
     0
100
AcDbLine
 10
-106.4999999999999
 20
56.625
 30
0.0
 11
-105.0
 21
56.625
 31
0.0
  0
LINE
  5
4D6
330
46F
100
AcDbEntity
  8
0
 62
     0
100
AcDbLine
 10
-103.4999999999999
 20
56.625
 30
0.0
 11
-103.4704744422446
 21
56.625
 31
0.0
  0
LINE
  5
4D7
330
46F
100
AcDbEntity
  8
0
 62
     0
100
AcDbLine
 10
-117.0
 20
58.125
 30
0.0
 11
-115.5
 21
58.125
 31
0.0
  0
LINE
  5
4D8
330
46F
100
AcDbEntity
  8
0
 62
     0
100
AcDbLine
 10
-114.0
 20
58.125
 30
0.0
 11
-112.5
 21
58.125
 31
0.0
  0
LINE
  5
4D9
330
46F
100
AcDbEntity
  8
0
 62
     0
100
AcDbLine
 10
-111.0
 20
58.125
 30
0.0
 11
-109.4999999999999
 21
58.125
 31
0.0
  0
LINE
  5
4DA
330
46F
100
AcDbEntity
  8
0
 62
     0
100
AcDbLine
 10
-108.0
 20
58.125
 30
0.0
 11
-106.4999999999999
 21
58.125
 31
0.0
  0
LINE
  5
4DB
330
46F
100
AcDbEntity
  8
0
 62
     0
100
AcDbLine
 10
-105.0
 20
58.125
 30
0.0
 11
-103.4999999999999
 21
58.125
 31
0.0
  0
LINE
  5
4DC
330
46F
100
AcDbEntity
  8
0
 62
     0
100
AcDbLine
 10
-118.0589070976645
 20
59.625
 30
0.0
 11
-116.9999999999999
 21
59.625
 31
0.0
  0
LINE
  5
4DD
330
46F
100
AcDbEntity
  8
0
 62
     0
100
AcDbLine
 10
-115.4999999999999
 20
59.625
 30
0.0
 11
-113.9999999999999
 21
59.625
 31
0.0
  0
LINE
  5
4DE
330
46F
100
AcDbEntity
  8
0
 62
     0
100
AcDbLine
 10
-112.4999999999999
 20
59.625
 30
0.0
 11
-110.9999999999999
 21
59.625
 31
0.0
  0
LINE
  5
4DF
330
46F
100
AcDbEntity
  8
0
 62
     0
100
AcDbLine
 10
-109.4999999999999
 20
59.625
 30
0.0
 11
-107.9999999999999
 21
59.625
 31
0.0
  0
LINE
  5
4E0
330
46F
100
AcDbEntity
  8
0
 62
     0
100
AcDbLine
 10
-106.4999999999999
 20
59.625
 30
0.0
 11
-104.9999999999999
 21
59.625
 31
0.0
  0
LINE
  5
4E1
330
46F
100
AcDbEntity
  8
0
 62
     0
100
AcDbLine
 10
-103.4999999999999
 20
59.625
 30
0.0
 11
-103.4704744422446
 21
59.625
 31
0.0
  0
LINE
  5
4E2
330
46F
100
AcDbEntity
  8
0
 62
     0
100
AcDbLine
 10
-117.0
 20
61.125
 30
0.0
 11
-115.5
 21
61.125
 31
0.0
  0
LINE
  5
4E3
330
46F
100
AcDbEntity
  8
0
 62
     0
100
AcDbLine
 10
-114.0
 20
61.125
 30
0.0
 11
-112.5
 21
61.125
 31
0.0
  0
LINE
  5
4E4
330
46F
100
AcDbEntity
  8
0
 62
     0
100
AcDbLine
 10
-111.0
 20
61.125
 30
0.0
 11
-109.4999999999999
 21
61.125
 31
0.0
  0
LINE
  5
4E5
330
46F
100
AcDbEntity
  8
0
 62
     0
100
AcDbLine
 10
-108.0
 20
61.125
 30
0.0
 11
-106.4999999999999
 21
61.125
 31
0.0
  0
LINE
  5
4E6
330
46F
100
AcDbEntity
  8
0
 62
     0
100
AcDbLine
 10
-105.0
 20
61.125
 30
0.0
 11
-103.4999999999999
 21
61.125
 31
0.0
  0
LINE
  5
4E7
330
46F
100
AcDbEntity
  8
0
 62
     0
100
AcDbLine
 10
-118.403908708926
 20
62.625
 30
0.0
 11
-117.0
 21
62.625
 31
0.0
  0
LINE
  5
4E8
330
46F
100
AcDbEntity
  8
0
 62
     0
100
AcDbLine
 10
-115.5
 20
62.625
 30
0.0
 11
-114.0
 21
62.625
 31
0.0
  0
LINE
  5
4E9
330
46F
100
AcDbEntity
  8
0
 62
     0
100
AcDbLine
 10
-112.5
 20
62.625
 30
0.0
 11
-111.0
 21
62.625
 31
0.0
  0
LINE
  5
4EA
330
46F
100
AcDbEntity
  8
0
 62
     0
100
AcDbLine
 10
-109.5
 20
62.625
 30
0.0
 11
-108.0
 21
62.625
 31
0.0
  0
LINE
  5
4EB
330
46F
100
AcDbEntity
  8
0
 62
     0
100
AcDbLine
 10
-106.5
 20
62.625
 30
0.0
 11
-105.0
 21
62.625
 31
0.0
  0
LINE
  5
4EC
330
46F
100
AcDbEntity
  8
0
 62
     0
100
AcDbLine
 10
-103.5
 20
62.625
 30
0.0
 11
-103.4704744422447
 21
62.625
 31
0.0
  0
LINE
  5
4ED
330
46F
100
AcDbEntity
  8
0
 62
     0
100
AcDbLine
 10
-115.2370450569386
 20
53.625
 30
0.0
 11
-114.0
 21
53.625
 31
0.0
  0
LINE
  5
4EE
330
46F
100
AcDbEntity
  8
0
 62
     0
100
AcDbLine
 10
-112.5
 20
53.625
 30
0.0
 11
-111.0
 21
53.625
 31
0.0
  0
LINE
  5
4EF
330
46F
100
AcDbEntity
  8
0
 62
     0
100
AcDbLine
 10
-109.5
 20
53.625
 30
0.0
 11
-108.0
 21
53.625
 31
0.0
  0
LINE
  5
4F0
330
46F
100
AcDbEntity
  8
0
 62
     0
100
AcDbLine
 10
-106.5
 20
53.625
 30
0.0
 11
-105.0
 21
53.625
 31
0.0
  0
LINE
  5
4F1
330
46F
100
AcDbEntity
  8
0
 62
     0
100
AcDbLine
 10
-103.5
 20
53.625
 30
0.0
 11
-103.4704744422446
 21
53.625
 31
0.0
  0
LINE
  5
4F2
330
46F
100
AcDbEntity
  8
0
 62
     0
100
AcDbLine
 10
-113.8920692435596
 20
52.125
 30
0.0
 11
-112.5
 21
52.125
 31
0.0
  0
LINE
  5
4F3
330
46F
100
AcDbEntity
  8
0
 62
     0
100
AcDbLine
 10
-111.0
 20
52.125
 30
0.0
 11
-109.5
 21
52.125
 31
0.0
  0
LINE
  5
4F4
330
46F
100
AcDbEntity
  8
0
 62
     0
100
AcDbLine
 10
-108.0
 20
52.125
 30
0.0
 11
-106.5
 21
52.125
 31
0.0
  0
LINE
  5
4F5
330
46F
100
AcDbEntity
  8
0
 62
     0
100
AcDbLine
 10
-105.0
 20
52.125
 30
0.0
 11
-103.5
 21
52.125
 31
0.0
  0
LINE
  5
4F6
330
46F
100
AcDbEntity
  8
0
 62
     0
100
AcDbLine
 10
-112.0883101551722
 20
50.625
 30
0.0
 11
-110.9999999999999
 21
50.625
 31
0.0
  0
LINE
  5
4F7
330
46F
100
AcDbEntity
  8
0
 62
     0
100
AcDbLine
 10
-109.4999999999999
 20
50.625
 30
0.0
 11
-107.9999999999999
 21
50.625
 31
0.0
  0
LINE
  5
4F8
330
46F
100
AcDbEntity
  8
0
 62
     0
100
AcDbLine
 10
-106.4999999999999
 20
50.625
 30
0.0
 11
-104.9999999999999
 21
50.625
 31
0.0
  0
LINE
  5
4F9
330
46F
100
AcDbEntity
  8
0
 62
     0
100
AcDbLine
 10
-103.4999999999999
 20
50.625
 30
0.0
 11
-103.4704744422446
 21
50.625
 31
0.0
  0
LINE
  5
4FA
330
46F
100
AcDbEntity
  8
0
 62
     0
100
AcDbLine
 10
-108.0
 20
49.125
 30
0.0
 11
-106.4999999999999
 21
49.125
 31
0.0
  0
LINE
  5
4FB
330
46F
100
AcDbEntity
  8
0
 62
     0
100
AcDbLine
 10
-105.0
 20
49.125
 30
0.0
 11
-103.4999999999999
 21
49.125
 31
0.0
  0
LINE
  5
4FC
330
46F
100
AcDbEntity
  8
0
 62
     0
100
AcDbLine
 10
-109.3125
 20
49.07779961266168
 30
0.0
 11
-109.3125
 21
49.3125
 31
0.0
  0
LINE
  5
4FD
330
46F
100
AcDbEntity
  8
0
 62
     0
100
AcDbLine
 10
-109.3125
 20
50.8125
 30
0.0
 11
-109.3125
 21
52.3125
 31
0.0
  0
LINE
  5
4FE
330
46F
100
AcDbEntity
  8
0
 62
     0
100
AcDbLine
 10
-109.3125
 20
53.8125
 30
0.0
 11
-109.3125
 21
55.3125
 31
0.0
  0
LINE
  5
4FF
330
46F
100
AcDbEntity
  8
0
 62
     0
100
AcDbLine
 10
-109.3125
 20
56.8125
 30
0.0
 11
-109.3125
 21
58.3125
 31
0.0
  0
LINE
  5
500
330
46F
100
AcDbEntity
  8
0
 62
     0
100
AcDbLine
 10
-109.3125
 20
59.8125
 30
0.0
 11
-109.3125
 21
61.3125
 31
0.0
  0
LINE
  5
501
330
46F
100
AcDbEntity
  8
0
 62
     0
100
AcDbLine
 10
-109.3125
 20
62.8125
 30
0.0
 11
-109.3125
 21
62.82251527592844
 31
0.0
  0
LINE
  5
502
330
46F
100
AcDbEntity
  8
0
 62
     0
100
AcDbLine
 10
-110.8125
 20
49.81708825522725
 30
0.0
 11
-110.8125
 21
50.8125
 31
0.0
  0
LINE
  5
503
330
46F
100
AcDbEntity
  8
0
 62
     0
100
AcDbLine
 10
-110.8125
 20
52.3125
 30
0.0
 11
-110.8125
 21
53.8125
 31
0.0
  0
LINE
  5
504
330
46F
100
AcDbEntity
  8
0
 62
     0
100
AcDbLine
 10
-110.8125
 20
55.3125
 30
0.0
 11
-110.8125
 21
56.8125
 31
0.0
  0
LINE
  5
505
330
46F
100
AcDbEntity
  8
0
 62
     0
100
AcDbLine
 10
-110.8125
 20
58.3125
 30
0.0
 11
-110.8125
 21
59.8125
 31
0.0
  0
LINE
  5
506
330
46F
100
AcDbEntity
  8
0
 62
     0
100
AcDbLine
 10
-110.8125
 20
61.3125
 30
0.0
 11
-110.8125
 21
62.8125
 31
0.0
  0
LINE
  5
507
330
46F
100
AcDbEntity
  8
0
 62
     0
100
AcDbLine
 10
-112.3124999999999
 20
50.8125
 30
0.0
 11
-112.3124999999999
 21
52.3125
 31
0.0
  0
LINE
  5
508
330
46F
100
AcDbEntity
  8
0
 62
     0
100
AcDbLine
 10
-112.3124999999999
 20
53.8125
 30
0.0
 11
-112.3124999999999
 21
55.3125
 31
0.0
  0
LINE
  5
509
330
46F
100
AcDbEntity
  8
0
 62
     0
100
AcDbLine
 10
-112.3124999999999
 20
56.8125
 30
0.0
 11
-112.3124999999999
 21
58.3125
 31
0.0
  0
LINE
  5
50A
330
46F
100
AcDbEntity
  8
0
 62
     0
100
AcDbLine
 10
-112.3124999999999
 20
59.8125
 30
0.0
 11
-112.3124999999999
 21
61.3125
 31
0.0
  0
LINE
  5
50B
330
46F
100
AcDbEntity
  8
0
 62
     0
100
AcDbLine
 10
-112.3124999999999
 20
62.8125
 30
0.0
 11
-112.3124999999999
 21
62.82251527592844
 31
0.0
  0
LINE
  5
50C
330
46F
100
AcDbEntity
  8
0
 62
     0
100
AcDbLine
 10
-113.8125
 20
52.3125
 30
0.0
 11
-113.8125
 21
53.8125
 31
0.0
  0
LINE
  5
50D
330
46F
100
AcDbEntity
  8
0
 62
     0
100
AcDbLine
 10
-113.8125
 20
55.3125
 30
0.0
 11
-113.8125
 21
56.8125
 31
0.0
  0
LINE
  5
50E
330
46F
100
AcDbEntity
  8
0
 62
     0
100
AcDbLine
 10
-113.8125
 20
58.3125
 30
0.0
 11
-113.8125
 21
59.8125
 31
0.0
  0
LINE
  5
50F
330
46F
100
AcDbEntity
  8
0
 62
     0
100
AcDbLine
 10
-113.8125
 20
61.3125
 30
0.0
 11
-113.8125
 21
62.8125
 31
0.0
  0
LINE
  5
510
330
46F
100
AcDbEntity
  8
0
 62
     0
100
AcDbLine
 10
-115.3124999999999
 20
53.8125
 30
0.0
 11
-115.3124999999999
 21
55.3125
 31
0.0
  0
LINE
  5
511
330
46F
100
AcDbEntity
  8
0
 62
     0
100
AcDbLine
 10
-115.3124999999999
 20
56.8125
 30
0.0
 11
-115.3124999999999
 21
58.3125
 31
0.0
  0
LINE
  5
512
330
46F
100
AcDbEntity
  8
0
 62
     0
100
AcDbLine
 10
-115.3124999999999
 20
59.8125
 30
0.0
 11
-115.3124999999999
 21
61.3125
 31
0.0
  0
LINE
  5
513
330
46F
100
AcDbEntity
  8
0
 62
     0
100
AcDbLine
 10
-115.3124999999999
 20
62.8125
 30
0.0
 11
-115.3124999999999
 21
62.82251527592844
 31
0.0
  0
LINE
  5
514
330
46F
100
AcDbEntity
  8
0
 62
     0
100
AcDbLine
 10
-116.8125
 20
56.11156710911021
 30
0.0
 11
-116.8125
 21
56.8125
 31
0.0
  0
LINE
  5
515
330
46F
100
AcDbEntity
  8
0
 62
     0
100
AcDbLine
 10
-116.8125
 20
58.3125
 30
0.0
 11
-116.8125
 21
59.8125
 31
0.0
  0
LINE
  5
516
330
46F
100
AcDbEntity
  8
0
 62
     0
100
AcDbLine
 10
-116.8125
 20
61.3125
 30
0.0
 11
-116.8125
 21
62.8125
 31
0.0
  0
LINE
  5
517
330
46F
100
AcDbEntity
  8
0
 62
     0
100
AcDbLine
 10
-118.3124999999999
 20
61.16096520913687
 30
0.0
 11
-118.3124999999999
 21
61.3125
 31
0.0
  0
LINE
  5
518
330
46F
100
AcDbEntity
  8
0
 62
     0
100
AcDbLine
 10
-118.3124999999999
 20
62.8125
 30
0.0
 11
-118.3124999999999
 21
62.82251527592844
 31
0.0
  0
LINE
  5
519
330
46F
100
AcDbEntity
  8
0
 62
     0
100
AcDbLine
 10
-107.8125
 20
49.3125
 30
0.0
 11
-107.8125
 21
50.8125
 31
0.0
  0
LINE
  5
51A
330
46F
100
AcDbEntity
  8
0
 62
     0
100
AcDbLine
 10
-107.8125
 20
52.3125
 30
0.0
 11
-107.8125
 21
53.8125
 31
0.0
  0
LINE
  5
51B
330
46F
100
AcDbEntity
  8
0
 62
     0
100
AcDbLine
 10
-107.8125
 20
55.3125
 30
0.0
 11
-107.8125
 21
56.8125
 31
0.0
  0
LINE
  5
51C
330
46F
100
AcDbEntity
  8
0
 62
     0
100
AcDbLine
 10
-107.8125
 20
58.3125
 30
0.0
 11
-107.8125
 21
59.8125
 31
0.0
  0
LINE
  5
51D
330
46F
100
AcDbEntity
  8
0
 62
     0
100
AcDbLine
 10
-107.8125
 20
61.3125
 30
0.0
 11
-107.8125
 21
62.8125
 31
0.0
  0
LINE
  5
51E
330
46F
100
AcDbEntity
  8
0
 62
     0
100
AcDbLine
 10
-106.3125
 20
48.1606817613034
 30
0.0
 11
-106.3125
 21
49.3125
 31
0.0
  0
LINE
  5
51F
330
46F
100
AcDbEntity
  8
0
 62
     0
100
AcDbLine
 10
-106.3125
 20
50.8125
 30
0.0
 11
-106.3125
 21
52.3125
 31
0.0
  0
LINE
  5
520
330
46F
100
AcDbEntity
  8
0
 62
     0
100
AcDbLine
 10
-106.3125
 20
53.8125
 30
0.0
 11
-106.3125
 21
55.3125
 31
0.0
  0
LINE
  5
521
330
46F
100
AcDbEntity
  8
0
 62
     0
100
AcDbLine
 10
-106.3125
 20
56.8125
 30
0.0
 11
-106.3125
 21
58.3125
 31
0.0
  0
LINE
  5
522
330
46F
100
AcDbEntity
  8
0
 62
     0
100
AcDbLine
 10
-106.3125
 20
59.8125
 30
0.0
 11
-106.3125
 21
61.3125
 31
0.0
  0
LINE
  5
523
330
46F
100
AcDbEntity
  8
0
 62
     0
100
AcDbLine
 10
-106.3125
 20
62.8125
 30
0.0
 11
-106.3125
 21
62.82251527592844
 31
0.0
  0
LINE
  5
524
330
46F
100
AcDbEntity
  8
0
 62
     0
100
AcDbLine
 10
-104.8124999999999
 20
49.3125
 30
0.0
 11
-104.8124999999999
 21
50.8125
 31
0.0
  0
LINE
  5
525
330
46F
100
AcDbEntity
  8
0
 62
     0
100
AcDbLine
 10
-104.8124999999999
 20
52.3125
 30
0.0
 11
-104.8124999999999
 21
53.8125
 31
0.0
  0
LINE
  5
526
330
46F
100
AcDbEntity
  8
0
 62
     0
100
AcDbLine
 10
-104.8124999999999
 20
55.3125
 30
0.0
 11
-104.8124999999999
 21
56.8125
 31
0.0
  0
LINE
  5
527
330
46F
100
AcDbEntity
  8
0
 62
     0
100
AcDbLine
 10
-104.8124999999999
 20
58.3125
 30
0.0
 11
-104.8124999999999
 21
59.8125
 31
0.0
  0
LINE
  5
528
330
46F
100
AcDbEntity
  8
0
 62
     0
100
AcDbLine
 10
-104.8124999999999
 20
61.3125
 30
0.0
 11
-104.8124999999999
 21
62.8125
 31
0.0
  0
LINE
  5
529
330
46F
100
AcDbEntity
  8
0
 62
     0
100
AcDbLine
 10
-103.3125
 20
57.9205246061257
 30
0.0
 11
-103.3125
 21
58.3125
 31
0.0
  0
LINE
  5
52A
330
46F
100
AcDbEntity
  8
0
 62
     0
100
AcDbLine
 10
-110.25
 20
49.51520508591411
 30
0.0
 11
-110.25
 21
50.8125
 31
0.0
  0
LINE
  5
52B
330
46F
100
AcDbEntity
  8
0
 62
     0
100
AcDbLine
 10
-110.25
 20
52.3125
 30
0.0
 11
-110.25
 21
53.8125
 31
0.0
  0
LINE
  5
52C
330
46F
100
AcDbEntity
  8
0
 62
     0
100
AcDbLine
 10
-110.25
 20
55.3125
 30
0.0
 11
-110.25
 21
56.8125
 31
0.0
  0
LINE
  5
52D
330
46F
100
AcDbEntity
  8
0
 62
     0
100
AcDbLine
 10
-110.25
 20
58.3125
 30
0.0
 11
-110.25
 21
59.8125
 31
0.0
  0
LINE
  5
52E
330
46F
100
AcDbEntity
  8
0
 62
     0
100
AcDbLine
 10
-110.25
 20
61.3125
 30
0.0
 11
-110.25
 21
62.8125
 31
0.0
  0
LINE
  5
52F
330
46F
100
AcDbEntity
  8
0
 62
     0
100
AcDbLine
 10
-111.7499999999999
 20
50.8125
 30
0.0
 11
-111.7499999999999
 21
52.3125
 31
0.0
  0
LINE
  5
530
330
46F
100
AcDbEntity
  8
0
 62
     0
100
AcDbLine
 10
-111.7499999999999
 20
53.8125
 30
0.0
 11
-111.7499999999999
 21
55.3125
 31
0.0
  0
LINE
  5
531
330
46F
100
AcDbEntity
  8
0
 62
     0
100
AcDbLine
 10
-111.7499999999999
 20
56.8125
 30
0.0
 11
-111.7499999999999
 21
58.3125
 31
0.0
  0
LINE
  5
532
330
46F
100
AcDbEntity
  8
0
 62
     0
100
AcDbLine
 10
-111.7499999999999
 20
59.8125
 30
0.0
 11
-111.7499999999999
 21
61.3125
 31
0.0
  0
LINE
  5
533
330
46F
100
AcDbEntity
  8
0
 62
     0
100
AcDbLine
 10
-111.7499999999999
 20
62.8125
 30
0.0
 11
-111.7499999999999
 21
62.82251527592844
 31
0.0
  0
LINE
  5
534
330
46F
100
AcDbEntity
  8
0
 62
     0
100
AcDbLine
 10
-113.25
 20
52.3125
 30
0.0
 11
-113.25
 21
53.8125
 31
0.0
  0
LINE
  5
535
330
46F
100
AcDbEntity
  8
0
 62
     0
100
AcDbLine
 10
-113.25
 20
55.3125
 30
0.0
 11
-113.25
 21
56.8125
 31
0.0
  0
LINE
  5
536
330
46F
100
AcDbEntity
  8
0
 62
     0
100
AcDbLine
 10
-113.25
 20
58.3125
 30
0.0
 11
-113.25
 21
59.8125
 31
0.0
  0
LINE
  5
537
330
46F
100
AcDbEntity
  8
0
 62
     0
100
AcDbLine
 10
-113.25
 20
61.3125
 30
0.0
 11
-113.25
 21
62.8125
 31
0.0
  0
LINE
  5
538
330
46F
100
AcDbEntity
  8
0
 62
     0
100
AcDbLine
 10
-114.7499999999999
 20
53.8125
 30
0.0
 11
-114.7499999999999
 21
55.3125
 31
0.0
  0
LINE
  5
539
330
46F
100
AcDbEntity
  8
0
 62
     0
100
AcDbLine
 10
-114.7499999999999
 20
56.8125
 30
0.0
 11
-114.7499999999999
 21
58.3125
 31
0.0
  0
LINE
  5
53A
330
46F
100
AcDbEntity
  8
0
 62
     0
100
AcDbLine
 10
-114.7499999999999
 20
59.8125
 30
0.0
 11
-114.7499999999999
 21
61.3125
 31
0.0
  0
LINE
  5
53B
330
46F
100
AcDbEntity
  8
0
 62
     0
100
AcDbLine
 10
-114.7499999999999
 20
62.8125
 30
0.0
 11
-114.7499999999999
 21
62.82251527592844
 31
0.0
  0
LINE
  5
53C
330
46F
100
AcDbEntity
  8
0
 62
     0
100
AcDbLine
 10
-116.25
 20
55.3125
 30
0.0
 11
-116.25
 21
56.8125
 31
0.0
  0
LINE
  5
53D
330
46F
100
AcDbEntity
  8
0
 62
     0
100
AcDbLine
 10
-116.25
 20
58.3125
 30
0.0
 11
-116.25
 21
59.8125
 31
0.0
  0
LINE
  5
53E
330
46F
100
AcDbEntity
  8
0
 62
     0
100
AcDbLine
 10
-116.25
 20
61.3125
 30
0.0
 11
-116.25
 21
62.8125
 31
0.0
  0
LINE
  5
53F
330
46F
100
AcDbEntity
  8
0
 62
     0
100
AcDbLine
 10
-117.7499999999999
 20
59.8125
 30
0.0
 11
-117.7499999999999
 21
61.3125
 31
0.0
  0
LINE
  5
540
330
46F
100
AcDbEntity
  8
0
 62
     0
100
AcDbLine
 10
-117.7499999999999
 20
62.8125
 30
0.0
 11
-117.7499999999999
 21
62.82251527592844
 31
0.0
  0
LINE
  5
541
330
46F
100
AcDbEntity
  8
0
 62
     0
100
AcDbLine
 10
-108.75
 20
48.85207930683552
 30
0.0
 11
-108.75
 21
49.3125
 31
0.0
  0
LINE
  5
542
330
46F
100
AcDbEntity
  8
0
 62
     0
100
AcDbLine
 10
-108.75
 20
50.8125
 30
0.0
 11
-108.75
 21
52.3125
 31
0.0
  0
LINE
  5
543
330
46F
100
AcDbEntity
  8
0
 62
     0
100
AcDbLine
 10
-108.75
 20
53.8125
 30
0.0
 11
-108.75
 21
55.3125
 31
0.0
  0
LINE
  5
544
330
46F
100
AcDbEntity
  8
0
 62
     0
100
AcDbLine
 10
-108.75
 20
56.8125
 30
0.0
 11
-108.75
 21
58.3125
 31
0.0
  0
LINE
  5
545
330
46F
100
AcDbEntity
  8
0
 62
     0
100
AcDbLine
 10
-108.75
 20
59.8125
 30
0.0
 11
-108.75
 21
61.3125
 31
0.0
  0
LINE
  5
546
330
46F
100
AcDbEntity
  8
0
 62
     0
100
AcDbLine
 10
-108.75
 20
62.8125
 30
0.0
 11
-108.75
 21
62.82251527592844
 31
0.0
  0
LINE
  5
547
330
46F
100
AcDbEntity
  8
0
 62
     0
100
AcDbLine
 10
-107.25
 20
49.3125
 30
0.0
 11
-107.25
 21
50.8125
 31
0.0
  0
LINE
  5
548
330
46F
100
AcDbEntity
  8
0
 62
     0
100
AcDbLine
 10
-107.25
 20
52.3125
 30
0.0
 11
-107.25
 21
53.8125
 31
0.0
  0
LINE
  5
549
330
46F
100
AcDbEntity
  8
0
 62
     0
100
AcDbLine
 10
-107.25
 20
55.3125
 30
0.0
 11
-107.25
 21
56.8125
 31
0.0
  0
LINE
  5
54A
330
46F
100
AcDbEntity
  8
0
 62
     0
100
AcDbLine
 10
-107.25
 20
58.3125
 30
0.0
 11
-107.25
 21
59.8125
 31
0.0
  0
LINE
  5
54B
330
46F
100
AcDbEntity
  8
0
 62
     0
100
AcDbLine
 10
-107.25
 20
61.3125
 30
0.0
 11
-107.25
 21
62.8125
 31
0.0
  0
LINE
  5
54C
330
46F
100
AcDbEntity
  8
0
 62
     0
100
AcDbLine
 10
-105.75
 20
48.06276478640264
 30
0.0
 11
-105.75
 21
49.3125
 31
0.0
  0
LINE
  5
54D
330
46F
100
AcDbEntity
  8
0
 62
     0
100
AcDbLine
 10
-105.75
 20
50.8125
 30
0.0
 11
-105.75
 21
52.3125
 31
0.0
  0
LINE
  5
54E
330
46F
100
AcDbEntity
  8
0
 62
     0
100
AcDbLine
 10
-105.75
 20
53.8125
 30
0.0
 11
-105.75
 21
55.3125
 31
0.0
  0
LINE
  5
54F
330
46F
100
AcDbEntity
  8
0
 62
     0
100
AcDbLine
 10
-105.75
 20
56.8125
 30
0.0
 11
-105.75
 21
58.3125
 31
0.0
  0
LINE
  5
550
330
46F
100
AcDbEntity
  8
0
 62
     0
100
AcDbLine
 10
-105.75
 20
59.8125
 30
0.0
 11
-105.75
 21
61.3125
 31
0.0
  0
LINE
  5
551
330
46F
100
AcDbEntity
  8
0
 62
     0
100
AcDbLine
 10
-105.75
 20
62.8125
 30
0.0
 11
-105.75
 21
62.82251527592844
 31
0.0
  0
LINE
  5
552
330
46F
100
AcDbEntity
  8
0
 62
     0
100
AcDbLine
 10
-104.2499999999999
 20
49.3125
 30
0.0
 11
-104.2499999999999
 21
50.8125
 31
0.0
  0
LINE
  5
553
330
46F
100
AcDbEntity
  8
0
 62
     0
100
AcDbLine
 10
-104.2499999999999
 20
52.3125
 30
0.0
 11
-104.2499999999999
 21
53.8125
 31
0.0
  0
LINE
  5
554
330
46F
100
AcDbEntity
  8
0
 62
     0
100
AcDbLine
 10
-104.2499999999999
 20
55.3125
 30
0.0
 11
-104.2499999999999
 21
56.8125
 31
0.0
  0
LINE
  5
555
330
46F
100
AcDbEntity
  8
0
 62
     0
100
AcDbLine
 10
-104.2499999999999
 20
58.3125
 30
0.0
 11
-104.2499999999999
 21
59.8125
 31
0.0
  0
LINE
  5
556
330
46F
100
AcDbEntity
  8
0
 62
     0
100
AcDbLine
 10
-104.2499999999999
 20
61.3125
 30
0.0
 11
-104.2499999999999
 21
62.8125
 31
0.0
  0
LINE
  5
557
330
46F
100
AcDbEntity
  8
0
 62
     0
100
AcDbLine
 10
-102.75
 20
57.9205246061257
 30
0.0
 11
-102.75
 21
58.3125
 31
0.0
  0
LINE
  5
558
330
46F
100
AcDbEntity
  8
0
 62
     0
100
AcDbLine
 10
-109.6875
 20
49.3125
 30
0.0
 11
-109.6875
 21
50.8125
 31
0.0
  0
LINE
  5
559
330
46F
100
AcDbEntity
  8
0
 62
     0
100
AcDbLine
 10
-109.6875
 20
52.3125
 30
0.0
 11
-109.6875
 21
53.8125
 31
0.0
  0
LINE
  5
55A
330
46F
100
AcDbEntity
  8
0
 62
     0
100
AcDbLine
 10
-109.6875
 20
55.3125
 30
0.0
 11
-109.6875
 21
56.8125
 31
0.0
  0
LINE
  5
55B
330
46F
100
AcDbEntity
  8
0
 62
     0
100
AcDbLine
 10
-109.6875
 20
58.3125
 30
0.0
 11
-109.6875
 21
59.8125
 31
0.0
  0
LINE
  5
55C
330
46F
100
AcDbEntity
  8
0
 62
     0
100
AcDbLine
 10
-109.6875
 20
61.3125
 30
0.0
 11
-109.6875
 21
62.8125
 31
0.0
  0
LINE
  5
55D
330
46F
100
AcDbEntity
  8
0
 62
     0
100
AcDbLine
 10
-111.1874999999999
 20
50.8125
 30
0.0
 11
-111.1874999999999
 21
52.3125
 31
0.0
  0
LINE
  5
55E
330
46F
100
AcDbEntity
  8
0
 62
     0
100
AcDbLine
 10
-111.1874999999999
 20
53.8125
 30
0.0
 11
-111.1874999999999
 21
55.3125
 31
0.0
  0
LINE
  5
55F
330
46F
100
AcDbEntity
  8
0
 62
     0
100
AcDbLine
 10
-111.1874999999999
 20
56.8125
 30
0.0
 11
-111.1874999999999
 21
58.3125
 31
0.0
  0
LINE
  5
560
330
46F
100
AcDbEntity
  8
0
 62
     0
100
AcDbLine
 10
-111.1874999999999
 20
59.8125
 30
0.0
 11
-111.1874999999999
 21
61.3125
 31
0.0
  0
LINE
  5
561
330
46F
100
AcDbEntity
  8
0
 62
     0
100
AcDbLine
 10
-111.1874999999999
 20
62.8125
 30
0.0
 11
-111.1874999999999
 21
62.82251527592844
 31
0.0
  0
LINE
  5
562
330
46F
100
AcDbEntity
  8
0
 62
     0
100
AcDbLine
 10
-112.6875
 20
52.3125
 30
0.0
 11
-112.6875
 21
53.8125
 31
0.0
  0
LINE
  5
563
330
46F
100
AcDbEntity
  8
0
 62
     0
100
AcDbLine
 10
-112.6875
 20
55.3125
 30
0.0
 11
-112.6875
 21
56.8125
 31
0.0
  0
LINE
  5
564
330
46F
100
AcDbEntity
  8
0
 62
     0
100
AcDbLine
 10
-112.6875
 20
58.3125
 30
0.0
 11
-112.6875
 21
59.8125
 31
0.0
  0
LINE
  5
565
330
46F
100
AcDbEntity
  8
0
 62
     0
100
AcDbLine
 10
-112.6875
 20
61.3125
 30
0.0
 11
-112.6875
 21
62.8125
 31
0.0
  0
LINE
  5
566
330
46F
100
AcDbEntity
  8
0
 62
     0
100
AcDbLine
 10
-114.1874999999999
 20
53.8125
 30
0.0
 11
-114.1874999999999
 21
55.3125
 31
0.0
  0
LINE
  5
567
330
46F
100
AcDbEntity
  8
0
 62
     0
100
AcDbLine
 10
-114.1874999999999
 20
56.8125
 30
0.0
 11
-114.1874999999999
 21
58.3125
 31
0.0
  0
LINE
  5
568
330
46F
100
AcDbEntity
  8
0
 62
     0
100
AcDbLine
 10
-114.1874999999999
 20
59.8125
 30
0.0
 11
-114.1874999999999
 21
61.3125
 31
0.0
  0
LINE
  5
569
330
46F
100
AcDbEntity
  8
0
 62
     0
100
AcDbLine
 10
-114.1874999999999
 20
62.8125
 30
0.0
 11
-114.1874999999999
 21
62.82251527592844
 31
0.0
  0
LINE
  5
56A
330
46F
100
AcDbEntity
  8
0
 62
     0
100
AcDbLine
 10
-115.6875
 20
55.3125
 30
0.0
 11
-115.6875
 21
56.8125
 31
0.0
  0
LINE
  5
56B
330
46F
100
AcDbEntity
  8
0
 62
     0
100
AcDbLine
 10
-115.6875
 20
58.3125
 30
0.0
 11
-115.6875
 21
59.8125
 31
0.0
  0
LINE
  5
56C
330
46F
100
AcDbEntity
  8
0
 62
     0
100
AcDbLine
 10
-115.6875
 20
61.3125
 30
0.0
 11
-115.6875
 21
62.8125
 31
0.0
  0
LINE
  5
56D
330
46F
100
AcDbEntity
  8
0
 62
     0
100
AcDbLine
 10
-117.1875
 20
56.9157664976745
 30
0.0
 11
-117.1875
 21
58.3125
 31
0.0
  0
LINE
  5
56E
330
46F
100
AcDbEntity
  8
0
 62
     0
100
AcDbLine
 10
-117.1875
 20
59.8125
 30
0.0
 11
-117.1875
 21
61.3125
 31
0.0
  0
LINE
  5
56F
330
46F
100
AcDbEntity
  8
0
 62
     0
100
AcDbLine
 10
-117.1875
 20
62.8125
 30
0.0
 11
-117.1875
 21
62.82251527592844
 31
0.0
  0
LINE
  5
570
330
46F
100
AcDbEntity
  8
0
 62
     0
100
AcDbLine
 10
-108.1874999999999
 20
48.6522597676816
 30
0.0
 11
-108.1874999999999
 21
49.3125
 31
0.0
  0
LINE
  5
571
330
46F
100
AcDbEntity
  8
0
 62
     0
100
AcDbLine
 10
-108.1874999999999
 20
50.8125
 30
0.0
 11
-108.1874999999999
 21
52.3125
 31
0.0
  0
LINE
  5
572
330
46F
100
AcDbEntity
  8
0
 62
     0
100
AcDbLine
 10
-108.1874999999999
 20
53.8125
 30
0.0
 11
-108.1874999999999
 21
55.3125
 31
0.0
  0
LINE
  5
573
330
46F
100
AcDbEntity
  8
0
 62
     0
100
AcDbLine
 10
-108.1874999999999
 20
56.8125
 30
0.0
 11
-108.1874999999999
 21
58.3125
 31
0.0
  0
LINE
  5
574
330
46F
100
AcDbEntity
  8
0
 62
     0
100
AcDbLine
 10
-108.1874999999999
 20
59.8125
 30
0.0
 11
-108.1874999999999
 21
61.3125
 31
0.0
  0
LINE
  5
575
330
46F
100
AcDbEntity
  8
0
 62
     0
100
AcDbLine
 10
-108.1874999999999
 20
62.8125
 30
0.0
 11
-108.1874999999999
 21
62.82251527592844
 31
0.0
  0
LINE
  5
576
330
46F
100
AcDbEntity
  8
0
 62
     0
100
AcDbLine
 10
-106.6875
 20
49.3125
 30
0.0
 11
-106.6875
 21
50.8125
 31
0.0
  0
LINE
  5
577
330
46F
100
AcDbEntity
  8
0
 62
     0
100
AcDbLine
 10
-106.6875
 20
52.3125
 30
0.0
 11
-106.6875
 21
53.8125
 31
0.0
  0
LINE
  5
578
330
46F
100
AcDbEntity
  8
0
 62
     0
100
AcDbLine
 10
-106.6875
 20
55.3125
 30
0.0
 11
-106.6875
 21
56.8125
 31
0.0
  0
LINE
  5
579
330
46F
100
AcDbEntity
  8
0
 62
     0
100
AcDbLine
 10
-106.6875
 20
58.3125
 30
0.0
 11
-106.6875
 21
59.8125
 31
0.0
  0
LINE
  5
57A
330
46F
100
AcDbEntity
  8
0
 62
     0
100
AcDbLine
 10
-106.6875
 20
61.3125
 30
0.0
 11
-106.6875
 21
62.8125
 31
0.0
  0
LINE
  5
57B
330
46F
100
AcDbEntity
  8
0
 62
     0
100
AcDbLine
 10
-105.1875
 20
47.98680516432503
 30
0.0
 11
-105.1875
 21
49.3125
 31
0.0
  0
LINE
  5
57C
330
46F
100
AcDbEntity
  8
0
 62
     0
100
AcDbLine
 10
-105.1875
 20
50.8125
 30
0.0
 11
-105.1875
 21
52.3125
 31
0.0
  0
LINE
  5
57D
330
46F
100
AcDbEntity
  8
0
 62
     0
100
AcDbLine
 10
-105.1875
 20
53.8125
 30
0.0
 11
-105.1875
 21
55.3125
 31
0.0
  0
LINE
  5
57E
330
46F
100
AcDbEntity
  8
0
 62
     0
100
AcDbLine
 10
-105.1875
 20
56.8125
 30
0.0
 11
-105.1875
 21
58.3125
 31
0.0
  0
LINE
  5
57F
330
46F
100
AcDbEntity
  8
0
 62
     0
100
AcDbLine
 10
-105.1875
 20
59.8125
 30
0.0
 11
-105.1875
 21
61.3125
 31
0.0
  0
LINE
  5
580
330
46F
100
AcDbEntity
  8
0
 62
     0
100
AcDbLine
 10
-105.1875
 20
62.8125
 30
0.0
 11
-105.1875
 21
62.82251527592844
 31
0.0
  0
LINE
  5
581
330
46F
100
AcDbEntity
  8
0
 62
     0
100
AcDbLine
 10
-103.6874999999999
 20
49.3125
 30
0.0
 11
-103.6874999999999
 21
50.8125
 31
0.0
  0
LINE
  5
582
330
46F
100
AcDbEntity
  8
0
 62
     0
100
AcDbLine
 10
-103.6874999999999
 20
52.3125
 30
0.0
 11
-103.6874999999999
 21
53.8125
 31
0.0
  0
LINE
  5
583
330
46F
100
AcDbEntity
  8
0
 62
     0
100
AcDbLine
 10
-103.6874999999999
 20
55.3125
 30
0.0
 11
-103.6874999999999
 21
56.8125
 31
0.0
  0
LINE
  5
584
330
46F
100
AcDbEntity
  8
0
 62
     0
100
AcDbLine
 10
-103.6874999999999
 20
58.3125
 30
0.0
 11
-103.6874999999999
 21
59.8125
 31
0.0
  0
LINE
  5
585
330
46F
100
AcDbEntity
  8
0
 62
     0
100
AcDbLine
 10
-103.6874999999999
 20
61.3125
 30
0.0
 11
-103.6874999999999
 21
62.8125
 31
0.0
  0
ENDBLK
  5
587
330
46F
100
AcDbEntity
  8
0
100
AcDbBlockEnd
  0
ENDSEC
  0
SECTION
  2
ENTITIES
  0
INSERT
  5
6E
330
1F
100
AcDbEntity
  8
0
100
AcDbBlockReference
  2
MARKINS
 10
44.00476925221799
 20
13.18273963798511
 30
0.0
 41
0.25
 42
0.25
 43
0.25
  0
INSERT
  5
8AA
330
1F
100
AcDbEntity
  8
OBJECT1
100
AcDbBlockReference
  2
SPECSHEET_FLOWARROW
 10
22.23349839358067
 20
5.19462616473562
 30
0.0
 41
0.1875
 42
0.1875
 43
0.1875
 50
270.0
  0
INSERT
  5
8AB
330
1F
100
AcDbEntity
  8
OBJECT2
100
AcDbBlockReference
  2
*X4
 10
31.83372560524666
 20
6.28487153298003
 30
0.0
 41
0.1875
 42
0.1875
 43
0.1875
1001
ACAD
1000
HATCH
1002
{
1070
    16
1000
AR-CONC
1040
0.5
1040
0.0
1002
}
  0
LINE
  5
8AC
330
1F
100
AcDbEntity
  8
OBJECT1
100
AcDbLine
 10
11.1198304800541
 20
5.04972947088812
 30
0.0
 11
11.1198304800541
 21
7.557985595489068
 31
0.0
  0
LINE
  5
8AD
330
1F
100
AcDbEntity
  8
OBJECT1
100
AcDbLine
 10
15.62119281459743
 20
7.557985595489068
 30
0.0
 11
15.62119281459743
 21
5.04972947088812
 31
0.0
  0
LINE
  5
8AE
330
1F
100
AcDbEntity
  8
OBJECT1
100
AcDbLine
 10
15.62119281459743
 20
5.04972947088812
 30
0.0
 11
11.1198304800541
 21
5.04972947088812
 31
0.0
  0
TEXT
  5
8AF
330
1F
100
AcDbEntity
  8
TEXT
100
AcDbText
 10
16.90463838477416
 20
5.047303392792837
 30
0.0
 40
0.28125
  1
DIRECTION OF FLOW
  7
ROMANS
100
AcDbText
  0
LINE
  5
8B0
330
1F
100
AcDbEntity
  8
OBJECT2
100
AcDbLine
 10
14.30801164732568
 20
19.63331924552679
 30
0.0
 11
14.30801164732577
 21
12.60268651338173
 31
0.0
  0
LINE
  5
8B1
330
1F
100
AcDbEntity
  8
OBJECT1
100
AcDbLine
 10
14.54702199978945
 20
19.63331924552679
 30
0.0
 11
14.54702199978945
 21
12.60268651338173
 31
0.0
  0
INSERT
  5
8B2
330
1F
100
AcDbEntity
  8
OBJECT2
100
AcDbBlockReference
  2
*X5
 10
31.83372560524666
 20
6.28487153298003
 30
0.0
 41
0.1875
 42
0.1875
 43
0.1875
1001
ACAD
1000
HATCH
1002
{
1070
    16
1000
EARTH
1040
6.0
1040
0.0
1002
}
  0
LINE
  5
8B3
330
1F
100
AcDbEntity
  8
OBJECT1
100
AcDbLine
 10
12.43301164732577
 20
15.75149425145665
 30
0.0
 11
12.43301164732577
 21
17.14496989662857
 31
0.0
  0
HATCH
  5
8B4
330
1F
100
AcDbEntity
  8
OBJECT2
100
AcDbHatch
 10
0.0
 20
0.0
 30
0.0
210
0.0
220
0.0
230
1.0
  2
AR-CONC
 70
     0
 71
     0
 91
        2
 92
        7
 72
     0
 73
     1
 93
        7
 10
19.20323240699656
 20
8.224167516151094
 10
18.7675355913594
 20
8.381417664289724
 10
18.76753559135949
 20
8.744302535372323
 10
14.66652717602125
 20
8.744302535372302
 10
14.66652717602125
 20
7.557985595489089
 10
15.62119281459743
 20
7.557985595489068
 10
19.20323240699656
 20
7.557985595489068
 97
        0
 92
        7
 72
     0
 73
     1
 93
       12
 10
25.03453839575701
 20
8.252091941716781
 10
24.70358763283002
 20
8.252091941716781
 10
24.70358763282994
 20
8.744302535372323
 10
20.2440636887963
 20
8.744302535372302
 10
20.2440636887963
 20
8.381417664289788
 10
19.80836687315923
 20
8.224167516151137
 10
19.80836687315932
 20
7.557985595489068
 10
24.70493348723676
 20
7.557985595489068
 10
24.70493348723676
 20
8.022258973027671
 10
24.32167186189247
 20
8.022258973027671
 10
24.32167186189247
 20
8.137175487962647
 10
25.0345383957571
 20
8.137175487962668
 97
        0
 75
     0
 76
     1
 52
0.0
 41
0.1875
 77
     0
 78
    13
 53
50.0
 43
-438.4149029189443
 44
-96.80070814245768
 45
1.344862842376412
 46
-0.1176602530923658
 79
     2
 49
0.140625
 49
-1.546875
 53
355.0
 43
-438.4149029189443
 44
-96.80070814245768
 45
-0.260158750524375
 46
1.410360250687522
 79
     2
 49
0.1125
 49
-1.2375
 53
100.4513999999999
 43
-438.3028310189444
 44
-96.8105131549577
 45
1.08470509071379
 46
1.292699141364288
 79
     2
 49
0.11951285625
 49
-1.314641459999999
 53
46.1842
 43
-438.4149029189443
 44
-96.42570814245768
 45
2.001076966173083
 46
-0.3103481518669091
 79
     2
 49
0.2109375
 49
-2.3203125
 53
96.63559999999998
 43
-438.2481465220694
 44
-96.45157059308267
 45
1.752492572903818
 46
1.826471007938328
 79
     2
 49
0.1792692899999999
 49
-1.971961874999998
 53
351.1842
 43
-438.4149029189443
 44
-96.42570814245768
 45
1.75249114712555
 46
1.826472376734983
 79
     2
 49
0.16875
 49
-1.85625
 53
21.0
 43
-438.2274029189444
 44
-96.51945814245769
 45
1.119200722722115
 46
-0.7549104199975103
 79
     2
 49
0.140625
 49
-1.546875
 53
326.0
 43
-438.2274029189444
 44
-96.51945814245769
 45
0.4562162473529657
 46
1.359656334462849
 79
     2
 49
0.1125
 49
-1.237499999999999
 53
71.45140000000001
 43
-438.1341362320694
 44
-96.58236740370767
 45
1.575417428590293
 46
0.6047446813311608
 79
     2
 49
0.11951285625
 49
-1.314641459999999
 53
37.49999999999999
 43
-438.4149029189443
 44
-96.80070814245768
 45
0.02279972871992
 46
0.6241759759337091
 79
     6
 49
0.0
 49
-1.2225
 49
0.0
 49
-1.25625
 49
0.0
 49
-1.2421875
 53
7.499999999999999
 43
-438.4149029189443
 44
-96.80070814245768
 45
0.4932553827040287
 46
0.7395219597794255
 79
     6
 49
0.0
 49
-0.7162499999999998
 49
0.0
 49
-1.194374999999999
 49
0.0
 49
-0.4734375
 53
327.4999999999999
 43
-438.8330279189443
 44
-96.80070814245768
 45
1.000917067823266
 46
-0.0422903845019621
 79
     6
 49
0.0
 49
-0.46875
 49
0.0
 49
-1.462499999999999
 49
0.0
 49
-1.940624999999999
 53
317.5
 43
-439.0205279189443
 44
-96.80070814245768
 45
1.093474067516974
 46
0.1876968418730957
 79
     6
 49
0.0
 49
-0.609375
 49
0.0
 49
-0.9712499999999998
 49
0.0
 49
-1.378124999999999
 47
0.1884814771808537
 98
        2
 10
17.45699524311368
 20
8.209639156752796
 10
20.99376443358386
 20
8.174299162393634
  0
LINE
  5
8B5
330
1F
100
AcDbEntity
  8
OBJECT1
100
AcDbLine
 10
17.82058734765894
 20
12.60263128416815
 30
0.0
 11
14.55943212274957
 21
12.60268651338173
 31
0.0
  0
LINE
  5
8B6
330
1F
100
AcDbEntity
  8
OBJECT1
100
AcDbLine
 10
17.82058734765894
 20
12.13764668595235
 30
0.0
 11
14.55943212274957
 21
12.1377018001827
 31
0.0
  0
LINE
  5
8B7
330
1F
100
AcDbEntity
  8
OBJECT1
100
AcDbLine
 10
18.76753559135949
 20
8.744302535372323
 30
0.0
 11
14.30801164732577
 21
8.744302535372323
 31
0.0
  0
LINE
  5
8B8
330
1F
100
AcDbEntity
  8
OBJECT1
100
AcDbLine
 10
15.62119281459743
 20
7.557985595489068
 30
0.0
 11
19.20323240699656
 21
7.557985595489068
 31
0.0
  0
HATCH
  5
8B9
330
1F
100
AcDbEntity
  8
OBJECT2
100
AcDbHatch
 10
0.0
 20
0.0
 30
0.0
210
0.0
220
0.0
230
1.0
  2
EARTH
 70
     0
 71
     0
 91
        2
 92
        7
 72
     1
 73
     1
 93
        3
 10
12.43301164732577
 20
14.61972545139634
 42
0.3842019355364141
 10
10.19551439965246
 20
12.60268651338173
 42
0.0
 10
12.43301164732577
 20
12.60268651338171
 42
0.0
 97
        0
 92
        7
 72
     1
 73
     1
 93
        3
 10
12.43301164732577
 20
12.13767424306751
 42
0.0
 10
10.19551439965246
 20
12.13767424306751
 42
0.3842019355364141
 10
12.43301164732577
 20
10.12063530505291
 42
0.0
 97
        0
 75
     0
 76
     1
 52
0.0
 41
1.125
 77
     0
 78
     6
 53
0.0
 43
-437.3371409997151
 44
-96.80070814245768
 45
0.28125
 46
0.28125
 79
     2
 49
0.28125
 49
-0.28125
 53
0.0
 43
-437.3371409997151
 44
-96.69523939245769
 45
0.28125
 46
0.28125
 79
     2
 49
0.28125
 49
-0.28125
 53
0.0
 43
-437.3371409997151
 44
-96.58977064245767
 45
0.28125
 46
0.28125
 79
     2
 49
0.28125
 49
-0.28125
 53
90.0
 43
-437.3019847497151
 44
-96.55461439245769
 45
-0.28125
 46
0.28125
 79
     2
 49
0.28125
 49
-0.28125
 53
90.0
 43
-437.1965159997151
 44
-96.55461439245769
 45
-0.28125
 46
0.28125
 79
     2
 49
0.28125
 49
-0.28125
 53
90.0
 43
-437.0910472497151
 44
-96.55461439245769
 45
-0.28125
 46
0.28125
 79
     2
 49
0.28125
 49
-0.28125
 47
0.0611022435304648
 98
        2
 10
11.47644814426923
 20
13.28476296960097
 10
11.5911049849671
 20
11.44023881028338
  0
LINE
  5
8BA
330
1F
100
AcDbEntity
  8
OBJECT1
100
AcDbLine
 10
14.54702199978945
 20
12.13767424306751
 30
0.0
 11
14.54702199978945
 21
8.744302535372323
 31
0.0
  0
LINE
  5
8BB
330
1F
100
AcDbEntity
  8
OBJECT2
100
AcDbLine
 10
14.30801164732568
 20
12.13767424306749
 30
0.0
 11
14.30801164732577
 21
7.557985595489068
 31
0.0
  0
LINE
  5
8BC
330
1F
100
AcDbEntity
  8
OBJECT1
100
AcDbLine
 10
12.43301164732577
 20
10.97386349423042
 30
0.0
 11
12.43301164732577
 21
12.13767424306751
 31
0.0
  0
LINE
  5
8BD
330
1F
100
AcDbEntity
  8
OBJECT1
100
AcDbLine
 10
14.66652717602125
 20
8.744302535372323
 30
0.0
 11
14.66652717602125
 21
7.557985595489068
 31
0.0
  0
LINE
  5
8BE
330
1F
100
AcDbEntity
  8
OBJECT2
100
AcDbLine
 10
12.43301164732577
 20
7.557985595489068
 30
0.0
 11
15.62119281459743
 21
7.557985595489068
 31
0.0
  0
LINE
  5
8BF
330
1F
100
AcDbEntity
  8
OBJECT2
100
AcDbLine
 10
12.59033347764063
 20
10.97386349423042
 30
0.0
 11
12.59033347764063
 21
10.77479555366026
 31
0.0
  0
LINE
  5
8C0
330
1F
100
AcDbEntity
  8
OBJECT2
100
AcDbLine
 10
14.30801164732577
 20
10.97386349423042
 30
0.0
 11
12.43301164732577
 21
10.97386349423042
 31
0.0
  0
LINE
  5
8C1
330
1F
100
AcDbEntity
  8
OBJECT2
100
AcDbLine
 10
14.30801164732577
 20
10.77479555366026
 30
0.0
 11
12.43301164732577
 21
10.77479555366026
 31
0.0
  0
LINE
  5
8C2
330
1F
100
AcDbEntity
  8
OBJECT1
100
AcDbLine
 10
12.43301164732577
 20
9.381319908488347
 30
0.0
 11
12.43301164732577
 21
10.77479555366026
 31
0.0
  0
LINE
  5
8C3
330
1F
100
AcDbEntity
  8
OBJECT2
100
AcDbLine
 10
14.30801164732577
 20
9.381319908488347
 30
0.0
 11
12.43301164732577
 21
9.381319908488347
 31
0.0
  0
LINE
  5
8C4
330
1F
100
AcDbEntity
  8
OBJECT2
100
AcDbLine
 10
12.59033347764063
 20
9.381319908488347
 30
0.0
 11
12.59033347764063
 21
9.182251967918187
 31
0.0
  0
LINE
  5
8C5
330
1F
100
AcDbEntity
  8
OBJECT2
100
AcDbLine
 10
14.30801164732577
 20
9.182251967918187
 30
0.0
 11
12.43301164732577
 21
9.182251967918187
 31
0.0
  0
LINE
  5
8C6
330
1F
100
AcDbEntity
  8
OBJECT1
100
AcDbLine
 10
12.43301164732577
 20
7.557985595489068
 30
0.0
 11
11.1198304800541
 21
7.557985595489068
 31
0.0
  0
INSERT
  5
8C7
330
1F
100
AcDbEntity
  8
OBJECT2
100
AcDbBlockReference
  2
*X3
 10
23.2647388724989
 20
9.499875381389809
 30
0.0
 41
-0.1875
 42
0.1875
 43
0.1875
1001
ACAD
1000
HATCH
1002
{
1070
    16
1000
ANSI31
1040
5.0
1040
5.497787143782136
1002
}
  0
LINE
  5
8C8
330
1F
100
AcDbEntity
  8
OBJECT2
100
AcDbLine
 10
14.66652717602125
 20
8.744302535372323
 30
0.0
 11
14.66652717602125
 21
7.557985595489068
 31
0.0
  0
LINE
  5
8C9
330
1F
100
AcDbEntity
  8
OBJECT1
100
AcDbLine
 10
12.43301164732577
 20
7.557985595489068
 30
0.0
 11
12.43301164732577
 21
9.182251967918187
 31
0.0
  0
LINE
  5
8CA
330
1F
100
AcDbEntity
  8
OBJECT1
100
AcDbLine
 10
16.19000973520426
 20
12.13767424306751
 30
0.0
 11
9.252999537217821
 21
12.13767424306751
 31
0.0
  0
LINE
  5
8CB
330
1F
100
AcDbEntity
  8
OBJECT1
100
AcDbLine
 10
14.55943212274957
 20
12.60268651338173
 30
0.0
 11
9.327833191963296
 21
12.60268651338173
 31
0.0
  0
LINE
  5
8CC
330
1F
100
AcDbEntity
  8
OBJECT1
100
AcDbLine
 10
9.327833191963296
 20
12.60268651338173
 30
0.0
 11
9.252999537217821
 21
12.57015631444736
 31
0.0
  0
LINE
  5
8CD
330
1F
100
AcDbEntity
  8
OBJECT1
100
AcDbLine
 10
9.208081935349444
 20
12.48812025907074
 30
0.0
 11
9.241777235348937
 21
12.4060842036941
 31
0.0
  0
LINE
  5
8CE
330
1F
100
AcDbEntity
  8
OBJECT2
100
AcDbLine
 10
9.241777235348937
 20
12.4060842036941
 30
0.0
 11
9.314764323604041
 21
12.36234566734625
 31
0.0
  0
LINE
  5
8CF
330
1F
100
AcDbEntity
  8
OBJECT2
100
AcDbLine
 10
9.314764323604041
 20
12.36234566734625
 30
0.0
 11
9.370932621734059
 21
12.28577902368141
 31
0.0
  0
LINE
  5
8D0
330
1F
100
AcDbEntity
  8
OBJECT2
100
AcDbLine
 10
9.370932621734059
 20
12.28577902368141
 30
0.0
 11
9.370932621734059
 21
12.22561921870645
 31
0.0
  0
LINE
  5
8D1
330
1F
100
AcDbEntity
  8
OBJECT1
100
AcDbLine
 10
9.208081935349444
 20
12.32953152448471
 30
0.0
 11
9.241777235348937
 21
12.4060842036941
 31
0.0
  0
LINE
  5
8D2
330
1F
100
AcDbEntity
  8
OBJECT1
100
AcDbLine
 10
9.252999537217821
 20
12.17023246459893
 30
0.0
 11
9.208081935349444
 21
12.25226851997555
 31
0.0
  0
LINE
  5
8D3
330
1F
100
AcDbEntity
  8
OBJECT1
100
AcDbLine
 10
9.208081935349444
 20
12.25226851997555
 30
0.0
 11
9.208081935349444
 21
12.32953152448471
 31
0.0
  0
LINE
  5
8D4
330
1F
100
AcDbEntity
  8
OBJECT1
100
AcDbLine
 10
9.252999537217821
 20
12.57015631444736
 30
0.0
 11
9.208081935349444
 21
12.48812025907074
 31
0.0
  0
LINE
  5
8D5
330
1F
100
AcDbEntity
  8
OBJECT2
100
AcDbLine
 10
14.60253155252033
 20
12.22561921870645
 30
0.0
 11
14.55943212274957
 21
12.1377018001827
 31
0.0
  0
LINE
  5
8D6
330
1F
100
AcDbEntity
  8
OBJECT1
100
AcDbLine
 10
14.55943212274957
 20
12.1377018001827
 30
0.0
 11
14.48459846800409
 21
12.17023246459893
 31
0.0
  0
LINE
  5
8D7
330
1F
100
AcDbEntity
  8
OBJECT1
100
AcDbLine
 10
12.43301164732577
 20
12.60268651338171
 30
0.0
 11
12.43301164732577
 21
13.95988272514442
 31
0.0
  0
LINE
  5
8D8
330
1F
100
AcDbEntity
  8
OBJECT2
100
AcDbLine
 10
14.30801164732577
 20
15.5524263108865
 30
0.0
 11
12.43301164732577
 21
15.5524263108865
 31
0.0
  0
LINE
  5
8D9
330
1F
100
AcDbEntity
  8
OBJECT2
100
AcDbLine
 10
14.30801164732577
 20
15.75149425145665
 30
0.0
 11
12.43301164732577
 21
15.75149425145665
 31
0.0
  0
LINE
  5
8DA
330
1F
100
AcDbEntity
  8
OBJECT2
100
AcDbLine
 10
14.30801164732577
 20
14.15895066571458
 30
0.0
 11
12.43301164732577
 21
14.15895066571458
 31
0.0
  0
LINE
  5
8DB
330
1F
100
AcDbEntity
  8
OBJECT2
100
AcDbLine
 10
14.30801164732577
 20
13.95988272514442
 30
0.0
 11
12.43301164732577
 21
13.95988272514442
 31
0.0
  0
LINE
  5
8DC
330
1F
100
AcDbEntity
  8
OBJECT1
100
AcDbLine
 10
12.43301164732577
 20
14.15895066571458
 30
0.0
 11
12.43301164732577
 21
15.5524263108865
 31
0.0
  0
LINE
  5
8DD
330
1F
100
AcDbEntity
  8
OBJECT2
100
AcDbLine
 10
12.59033347764063
 20
14.15895066571458
 30
0.0
 11
12.59033347764063
 21
13.95988272514442
 31
0.0
  0
LINE
  5
8DE
330
1F
100
AcDbEntity
  8
OBJECT2
100
AcDbLine
 10
12.59033347764063
 20
15.75149425145665
 30
0.0
 11
12.59033347764063
 21
15.5524263108865
 31
0.0
  0
LINE
  5
8DF
330
1F
100
AcDbEntity
  8
OBJECT1
100
AcDbLine
 10
19.34312028577904
 20
11.1753225641031
 30
0.0
 11
19.06256075745716
 21
11.06983832615417
 31
0.0
  0
LINE
  5
8E0
330
1F
100
AcDbEntity
  8
OBJECT2
100
AcDbLine
 10
18.91362147870347
 20
12.09638181612461
 30
0.0
 11
18.91362147870347
 21
10.83159158810187
 31
0.0
  0
LINE
  5
8E1
330
1F
100
AcDbEntity
  8
OBJECT2
100
AcDbLine
 10
18.82059006062627
 20
11.08124051086793
 30
0.0
 11
18.82062480056132
 21
12.0963987037232
 31
0.0
  0
LINE
  5
8E2
330
1F
100
AcDbEntity
  8
OBJECT2
100
AcDbLine
 10
19.0066115881431
 20
10.89744103954045
 30
0.0
 11
19.00661224575228
 21
11.97619606142084
 31
0.0
  0
ARC
  5
8E3
330
1F
100
AcDbEntity
  8
OBJECT1
100
AcDbCircle
 10
18.79057184210998
 20
11.14971220905359
 30
0.0
 40
0.019576496053125
100
AcDbArc
 50
180.2817380000019
 51
224.844238000009
  0
LINE
  5
8E4
330
1F
100
AcDbEntity
  8
OBJECT1
100
AcDbLine
 10
19.64521147287655
 20
11.48412969449075
 30
0.0
 11
19.64521127882207
 21
11.07180817104003
 31
0.0
  0
LINE
  5
8E5
330
1F
100
AcDbEntity
  8
OBJECT1
100
AcDbLine
 10
19.36930606388162
 20
11.15730034628564
 30
0.0
 11
19.36930619877387
 21
11.07180817104003
 31
0.0
  0
LINE
  5
8E6
330
1F
100
AcDbEntity
  8
OBJECT2
100
AcDbLine
 10
24.70358763283002
 20
8.910946529454673
 30
0.0
 11
24.70358763283002
 21
8.252091941716781
 31
0.0
  0
LINE
  5
8E7
330
1F
100
AcDbEntity
  8
OBJECT1
100
AcDbLine
 10
19.67449095826689
 20
9.955808256540091
 30
0.0
 11
19.67449095826689
 21
8.973009685212556
 31
0.0
  0
LINE
  5
8E8
330
1F
100
AcDbEntity
  8
OBJECT1
100
AcDbLine
 10
19.33997666650165
 20
9.955808256540091
 30
0.0
 11
19.33997666650165
 21
8.973009685212556
 31
0.0
  0
ARC
  5
8E9
330
1F
100
AcDbEntity
  8
OBJECT2
100
AcDbCircle
 10
19.59086238532566
 20
8.955722748031266
 30
0.0
 40
0.0853965831243282
100
AcDbArc
 50
11.67916811963645
 51
168.3208318803635
  0
ARC
  5
8EA
330
1F
100
AcDbEntity
  8
OBJECT1
100
AcDbCircle
 10
19.59086238532566
 20
8.990296622393845
 30
0.0
 40
0.0853965831243282
100
AcDbArc
 50
191.6791681196364
 51
348.3208318803635
  0
ARC
  5
8EB
330
1F
100
AcDbEntity
  8
OBJECT1
100
AcDbCircle
 10
19.42360523944305
 20
8.990296622393845
 30
0.0
 40
0.0853965831243282
100
AcDbArc
 50
191.6791681196364
 51
348.3208318803635
  0
ARC
  5
8EC
330
1F
100
AcDbEntity
  8
OBJECT1
100
AcDbCircle
 10
19.12320820343908
 20
10.40919878913066
 30
0.0
 40
0.6979254737891907
100
AcDbArc
 50
329.7359540000051
 51
359.9986799999973
  0
ARC
  5
8ED
330
1F
100
AcDbEntity
  8
OBJECT1
100
AcDbCircle
 10
19.71232411766584
 20
9.959992976696387
 30
0.0
 40
0.0041847201563063
100
AcDbArc
 50
269.9945370000047
 51
0.0018229999987882
  0
ARC
  5
8EE
330
1F
100
AcDbEntity
  8
OBJECT1
100
AcDbCircle
 10
19.78625310426071
 20
10.02230273163393
 30
0.0
 40
0.069744405938625
100
AcDbArc
 50
149.7346039999927
 51
180.0009769999967
  0
LINE
  5
8EF
330
1F
100
AcDbEntity
  8
OBJECT1
100
AcDbLine
 10
19.71650883782212
 20
9.959993116196319
 30
0.0
 11
19.71650883782212
 21
10.02230147613417
 31
0.0
  0
LINE
  5
8F0
330
1F
100
AcDbEntity
  8
OBJECT1
100
AcDbLine
 10
19.71232369916584
 20
9.955808256540091
 30
0.0
 11
19.67449095826689
 21
9.955808256540091
 31
0.0
  0
LINE
  5
8F1
330
1F
100
AcDbEntity
  8
OBJECT2
100
AcDbLine
 10
19.45494639055647
 20
10.42731885897742
 30
0.0
 11
19.45494639055647
 21
10.94904847479
 31
0.0
  0
LINE
  5
8F2
330
1F
100
AcDbEntity
  8
OBJECT2
100
AcDbLine
 10
19.55957136946264
 20
10.42731885897742
 30
0.0
 11
19.55957136946264
 21
10.94904847479
 31
0.0
  0
LINE
  5
8F3
330
1F
100
AcDbEntity
  8
OBJECT2
100
AcDbLine
 10
19.77782423696016
 20
10.43253155442649
 30
0.0
 11
19.61955635736896
 21
10.96718333163377
 31
0.0
  0
LINE
  5
8F4
330
1F
100
AcDbEntity
  8
OBJECT1
100
AcDbLine
 10
19.65443135033777
 20
10.96718333163377
 30
0.0
 11
19.82113381672821
 21
10.40918316513382
 31
0.0
  0
LINE
  5
8F5
330
1F
100
AcDbEntity
  8
OBJECT2
100
AcDbLine
 10
19.76039092547489
 20
10.40918316513382
 30
0.0
 11
19.5777062263065
 21
10.40918316513382
 31
0.0
  0
ARC
  5
8F6
330
1F
100
AcDbEntity
  8
OBJECT2
100
AcDbCircle
 10
19.57770692380629
 20
10.42731885897742
 30
0.0
 40
0.0181356938436094
100
AcDbArc
 50
180.0
 51
269.9978940000012
  0
ARC
  5
8F7
330
1F
100
AcDbEntity
  8
OBJECT2
100
AcDbCircle
 10
19.43681069671285
 20
10.42731871947742
 30
0.0
 40
0.0181355543436375
100
AcDbArc
 50
270.0025219999836
 51
0.0004200000031911
  0
ARC
  5
8F8
330
1F
100
AcDbEntity
  8
OBJECT2
100
AcDbCircle
 10
19.76039120447484
 20
10.4273178824776
 30
0.0
 40
0.0181347173438063
100
AcDbArc
 50
269.999146000013
 51
16.63506299999914
  0
LINE
  5
8F9
330
1F
100
AcDbEntity
  8
OBJECT2
100
AcDbLine
 10
19.5777062263065
 20
10.96718333163377
 30
0.0
 11
19.61955635736896
 21
10.96718333163377
 31
0.0
  0
ARC
  5
8FA
330
1F
100
AcDbEntity
  8
OBJECT1
100
AcDbCircle
 10
19.50725888000952
 20
11.17643356844619
 30
0.0
 40
0.1395001113749719
100
AcDbArc
 50
228.5905760000054
 51
311.4094390000045
  0
ARC
  5
8FB
330
1F
100
AcDbEntity
  8
OBJECT2
100
AcDbCircle
 10
19.57770650530645
 20
10.94904819579005
 30
0.0
 40
0.0181351358437219
100
AcDbArc
 50
90.00083899998543
 51
179.999176000003
  0
ARC
  5
8FC
330
1F
100
AcDbEntity
  8
OBJECT2
100
AcDbCircle
 10
19.43681125471283
 20
10.94904833529002
 30
0.0
 40
0.01813499634375
100
AcDbArc
 50
0.0004200000031911
 51
89.9995729999935
  0
LINE
  5
8FD
330
1F
100
AcDbEntity
  8
OBJECT2
100
AcDbLine
 10
19.43681139421272
 20
10.96718333163377
 30
0.0
 11
19.39496126315026
 21
10.96718333163377
 31
0.0
  0
ARC
  5
8FE
330
1F
100
AcDbEntity
  8
OBJECT1
100
AcDbCircle
 10
19.66698634780636
 20
11.06762289288386
 30
0.0
 40
0.0041851386562219
100
AcDbArc
 50
0.0036470000008279
 51
90.0
  0
LINE
  5
8FF
330
1F
100
AcDbEntity
  8
OBJECT1
100
AcDbLine
 10
19.67117148646273
 20
11.06762317188377
 30
0.0
 11
19.67117148646273
 21
10.98810846691499
 31
0.0
  0
ARC
  5
900
330
1F
100
AcDbEntity
  8
OBJECT1
100
AcDbCircle
 10
19.66698634780636
 20
10.98810846691499
 30
0.0
 40
0.0041851386562219
100
AcDbArc
 50
270.0
 51
0.0
  0
LINE
  5
901
330
1F
100
AcDbEntity
  8
OBJECT1
100
AcDbLine
 10
19.65443135033777
 20
10.98392346775872
 30
0.0
 11
19.65443135033777
 21
10.96718333163377
 31
0.0
  0
LINE
  5
902
330
1F
100
AcDbEntity
  8
OBJECT1
100
AcDbLine
 10
19.5995291834067
 20
11.07180817104003
 30
0.0
 11
19.66698634780636
 21
11.07180817104003
 31
0.0
  0
LINE
  5
903
330
1F
100
AcDbEntity
  8
OBJECT1
100
AcDbLine
 10
19.66698634780636
 20
10.98392346775872
 30
0.0
 11
19.65443135033777
 21
10.98392346775872
 31
0.0
  0
LINE
  5
904
330
1F
100
AcDbEntity
  8
OBJECT1
100
AcDbLine
 10
19.33997666650165
 20
9.955808256540091
 30
0.0
 11
19.30219392135322
 21
9.955808256540091
 31
0.0
  0
ARC
  5
905
330
1F
100
AcDbEntity
  8
OBJECT1
100
AcDbCircle
 10
19.22826437675855
 20
10.02230273163393
 30
0.0
 40
0.069744405938625
100
AcDbArc
 50
359.9990159999999
 51
30.26532000000653
  0
ARC
  5
906
330
1F
100
AcDbEntity
  8
OBJECT1
100
AcDbCircle
 10
19.30219350285338
 20
9.959992976696387
 30
0.0
 40
0.0041847201563063
100
AcDbArc
 50
179.998169000003
 51
270.0054649999851
  0
LINE
  5
907
330
1F
100
AcDbEntity
  8
OBJECT1
100
AcDbLine
 10
19.298008922197
 20
9.959993116196319
 30
0.0
 11
19.298008922197
 21
10.02230147613417
 31
0.0
  0
LINE
  5
908
330
1F
100
AcDbEntity
  8
OBJECT1
100
AcDbLine
 10
19.3433461340565
 20
11.06762317188377
 30
0.0
 11
19.3433461340565
 21
10.98810846691499
 31
0.0
  0
ARC
  5
909
330
1F
100
AcDbEntity
  8
OBJECT1
100
AcDbCircle
 10
19.34753141221268
 20
11.06762303238383
 30
0.0
 40
0.0041852781561938
100
AcDbArc
 50
90.00181599999546
 51
179.9990839999976
  0
LINE
  5
90A
330
1F
100
AcDbEntity
  8
OBJECT1
100
AcDbLine
 10
19.34753127271261
 20
10.98392346775872
 30
0.0
 11
19.36008627018146
 21
10.98392346775872
 31
0.0
  0
ARC
  5
90B
330
1F
100
AcDbEntity
  8
OBJECT1
100
AcDbCircle
 10
19.34753141221268
 20
10.98810846691499
 30
0.0
 40
0.0041851386562219
100
AcDbArc
 50
180.0
 51
269.998169000003
  0
LINE
  5
90C
330
1F
100
AcDbEntity
  8
OBJECT1
100
AcDbLine
 10
19.36008627018146
 20
10.98392346775872
 30
0.0
 11
19.36008627018146
 21
10.96718333163377
 31
0.0
  0
LINE
  5
90D
330
1F
100
AcDbEntity
  8
OBJECT2
100
AcDbLine
 10
19.70451955670444
 20
10.03292410798526
 30
0.0
 11
19.3099980638147
 21
10.03292410798526
 31
0.0
  0
LINE
  5
90E
330
1F
100
AcDbEntity
  8
OBJECT2
100
AcDbLine
 10
19.33997666650165
 20
9.955808256540091
 30
0.0
 11
19.67449095826689
 21
9.955808256540091
 31
0.0
  0
LINE
  5
90F
330
1F
100
AcDbEntity
  8
OBJECT1
100
AcDbLine
 10
19.4149885766125
 20
11.07180817104003
 30
0.0
 11
19.34753127271261
 21
11.07180817104003
 31
0.0
  0
LINE
  5
910
330
1F
100
AcDbEntity
  8
OBJECT1
100
AcDbLine
 10
19.0066115881431
 20
10.89744103954045
 30
0.0
 11
19.00661136894001
 21
10.8509618807369
 31
0.0
  0
LINE
  5
911
330
1F
100
AcDbEntity
  8
OBJECT1
100
AcDbLine
 10
18.76915943984378
 20
10.88704567834646
 30
0.0
 11
18.75861993761333
 21
10.90255188346444
 31
0.0
  0
LINE
  5
912
330
1F
100
AcDbEntity
  8
OBJECT2
100
AcDbLine
 10
18.82062566732765
 20
11.08124051723755
 30
0.0
 11
18.82062393379482
 21
10.88702726528959
 31
0.0
  0
ARC
  5
913
330
1F
100
AcDbEntity
  8
OBJECT1
100
AcDbCircle
 10
18.98728007046034
 20
10.85091825932836
 30
0.0
 40
0.0193312861025625
100
AcDbArc
 50
269.8704990000034
 51
0.1295010000031199
  0
LINE
  5
914
330
1F
100
AcDbEntity
  8
OBJECT1
100
AcDbLine
 10
18.91362125950047
 20
10.83158434543787
 30
0.0
 11
18.83999978117777
 21
10.83160580063964
 31
0.0
  0
LINE
  5
915
330
1F
100
AcDbEntity
  8
OBJECT1
100
AcDbLine
 10
18.91362147870347
 20
10.83159158810187
 30
0.0
 11
18.98723644905195
 21
10.83158696084873
 31
0.0
  0
LINE
  5
916
330
1F
100
AcDbEntity
  8
OBJECT1
100
AcDbLine
 10
18.82062393379482
 20
10.88702726528959
 30
0.0
 11
18.76915943984378
 21
10.88704567834646
 31
0.0
  0
LINE
  5
917
330
1F
100
AcDbEntity
  8
OBJECT1
100
AcDbLine
 10
18.82062480056132
 20
10.88704096548071
 30
0.0
 11
18.82060594909834
 21
10.85096847185446
 31
0.0
  0
ARC
  5
918
330
1F
100
AcDbEntity
  8
OBJECT1
100
AcDbCircle
 10
18.83998525304764
 20
10.85098513128685
 30
0.0
 40
0.019379336092875
100
AcDbArc
 50
180.0485229999985
 51
270.0429529999929
  0
ARC
  5
919
330
1F
100
AcDbEntity
  8
OBJECT2
100
AcDbCircle
 10
19.25412627654441
 20
10.4273178824776
 30
0.0
 40
0.0181345778438344
100
AcDbArc
 50
163.3648070000018
 51
270.0012609999915
  0
LINE
  5
91A
330
1F
100
AcDbEntity
  8
OBJECT1
100
AcDbLine
 10
18.81502438163301
 20
11.09756467837389
 30
0.0
 11
18.77669124686986
 21
11.13590701966548
 31
0.0
  0
LINE
  5
91B
330
1F
100
AcDbEntity
  8
OBJECT2
100
AcDbLine
 10
18.82062371459182
 20
11.03414693207003
 30
0.0
 11
18.76915965904695
 21
11.03413728713547
 31
0.0
  0
LINE
  5
91C
330
1F
100
AcDbEntity
  8
OBJECT1
100
AcDbLine
 10
18.82062566732765
 20
11.08124051723755
 30
0.0
 11
18.76915922064077
 21
11.08123131051662
 31
0.0
  0
LINE
  5
91D
330
1F
100
AcDbEntity
  8
OBJECT2
100
AcDbLine
 10
18.82062393379482
 20
10.93412172707689
 30
0.0
 11
18.76915943984378
 21
10.93414014013376
 31
0.0
  0
ARC
  5
91E
330
1F
100
AcDbEntity
  8
OBJECT1
100
AcDbCircle
 10
18.80132923218008
 20
11.08403480802658
 30
0.0
 40
0.0192773461134375
100
AcDbArc
 50
359.8341060000024
 51
45.0492099999977
  0
LINE
  5
91F
330
1F
100
AcDbEntity
  8
OBJECT2
100
AcDbLine
 10
18.76915965904695
 20
11.03413728713547
 30
0.0
 11
18.75862059522259
 21
11.0527645053929
 31
0.0
  0
LINE
  5
920
330
1F
100
AcDbEntity
  8
OBJECT2
100
AcDbLine
 10
18.76915965904695
 20
11.03413728713547
 30
0.0
 11
18.75862059522259
 21
10.9934670093682
 31
0.0
  0
LINE
  5
921
330
1F
100
AcDbEntity
  8
OBJECT1
100
AcDbLine
 10
18.76915922064077
 20
11.08123131051662
 30
0.0
 11
18.7586208144256
 21
11.06571567966715
 31
0.0
  0
LINE
  5
922
330
1F
100
AcDbEntity
  8
OBJECT2
100
AcDbLine
 10
18.76915943984378
 20
10.93414014013376
 30
0.0
 11
18.7586208144256
 21
10.97479156643801
 31
0.0
  0
LINE
  5
923
330
1F
100
AcDbEntity
  8
OBJECT2
100
AcDbLine
 10
18.76915943984378
 20
10.93414014013376
 30
0.0
 11
18.7586208144256
 21
10.91549363200722
 31
0.0
  0
LINE
  5
924
330
1F
100
AcDbEntity
  8
OBJECT1
100
AcDbLine
 10
18.7586208144256
 20
11.06571567966715
 30
0.0
 11
18.75861993761333
 21
10.90255188346444
 31
0.0
  0
ARC
  5
925
330
1F
100
AcDbEntity
  8
OBJECT1
100
AcDbCircle
 10
19.06934048883733
 20
11.05174289451538
 30
0.0
 40
0.0193238461040625
100
AcDbArc
 50
110.5393939999893
 51
180.1214900000026
  0
LINE
  5
926
330
1F
100
AcDbEntity
  8
OBJECT2
100
AcDbLine
 10
19.05001686246462
 20
11.0517021227466
 30
0.0
 11
19.04999735339245
 21
11.10797352055598
 31
0.0
  0
LINE
  5
927
330
1F
100
AcDbEntity
  8
OBJECT1
100
AcDbLine
 10
19.05001686246462
 20
11.0517021227466
 30
0.0
 11
19.05001620485544
 21
10.93620951157673
 31
0.0
  0
ARC
  5
928
330
1F
100
AcDbEntity
  8
OBJECT1
100
AcDbCircle
 10
19.02591285580377
 20
10.89751469176792
 30
0.0
 40
0.019301216108625
100
AcDbArc
 50
89.78094499999938
 51
180.2190550000006
  0
LINE
  5
929
330
1F
100
AcDbEntity
  8
OBJECT1
100
AcDbLine
 10
19.03064172337346
 20
10.916824946754
 30
0.0
 11
19.02598650803125
 21
10.91681595942862
 31
0.0
  0
ARC
  5
92A
330
1F
100
AcDbEntity
  8
OBJECT1
100
AcDbCircle
 10
19.03062002227068
 20
10.93622156774494
 30
0.0
 40
0.019396696089375
100
AcDbArc
 50
270.0635990000031
 51
359.9644930000005
  0
LINE
  5
92B
330
1F
100
AcDbEntity
  8
OBJECT1
100
AcDbLine
 10
19.36008627018146
 20
10.96718333163377
 30
0.0
 11
19.19338394329082
 21
10.40918316513382
 31
0.0
  0
ARC
  5
92C
330
1F
100
AcDbEntity
  8
OBJECT1
100
AcDbCircle
 10
19.89130969607993
 20
10.40919892863064
 30
0.0
 40
0.6979258922891063
100
AcDbArc
 50
180.0013430000024
 51
210.2640380000019
  0
LINE
  5
92D
330
1F
100
AcDbEntity
  8
OBJECT2
100
AcDbLine
 10
19.25412669504433
 20
10.40918316513382
 30
0.0
 11
19.43681139421272
 21
10.40918316513382
 31
0.0
  0
LINE
  5
92E
330
1F
100
AcDbEntity
  8
OBJECT2
100
AcDbLine
 10
19.23669268605928
 20
10.43252862492707
 30
0.0
 11
19.39496126315026
 21
10.96718333163377
 31
0.0
  0
LINE
  5
92F
330
1F
100
AcDbEntity
  8
OBJECT1
100
AcDbLine
 10
18.76753559135949
 20
8.381417664289745
 30
0.0
 11
19.20323240699656
 21
8.224167516151137
 31
0.0
  0
LINE
  5
930
330
1F
100
AcDbEntity
  8
OBJECT1
100
AcDbLine
 10
18.76753559135949
 20
8.744302535372323
 30
0.0
 11
18.76753559135949
 21
8.381417664289745
 31
0.0
  0
LINE
  5
931
330
1F
100
AcDbEntity
  8
OBJECT1
100
AcDbLine
 10
19.20323240699656
 20
8.224167516151137
 30
0.0
 11
19.20323240699656
 21
7.280666706628036
 31
0.0
  0
LINE
  5
932
330
1F
100
AcDbEntity
  8
OBJECT2
100
AcDbLine
 10
24.70358763283002
 20
8.252091941716781
 30
0.0
 11
25.0345383957571
 21
8.252091941716781
 31
0.0
  0
LINE
  5
933
330
1F
100
AcDbEntity
  8
OBJECT1
100
AcDbLine
 10
24.70358763283002
 20
8.744302535372323
 30
0.0
 11
20.2440636887963
 21
8.744302535372323
 31
0.0
  0
LINE
  5
934
330
1F
100
AcDbEntity
  8
OBJECT1
100
AcDbLine
 10
20.2440636887963
 20
8.744302535372323
 30
0.0
 11
20.2440636887963
 21
8.381417664289745
 31
0.0
  0
LINE
  5
935
330
1F
100
AcDbEntity
  8
OBJECT1
100
AcDbLine
 10
20.2440636887963
 20
8.381417664289745
 30
0.0
 11
19.80836687315923
 21
8.224167516151137
 31
0.0
  0
LINE
  5
936
330
1F
100
AcDbEntity
  8
OBJECT1
100
AcDbLine
 10
19.80836687315923
 20
8.224167516151137
 30
0.0
 11
19.80836687315923
 21
7.280666706628036
 31
0.0
  0
LINE
  5
937
330
1F
100
AcDbEntity
  8
OBJECT1
100
AcDbLine
 10
19.80836687315932
 20
7.557985595489068
 30
0.0
 11
24.70358763283002
 21
7.557985595489068
 31
0.0
  0
LINE
  5
938
330
1F
100
AcDbEntity
  8
OBJECT2
100
AcDbLine
 10
24.70493348723676
 20
8.022258973027671
 30
0.0
 11
24.70493348723676
 21
7.325098880311447
 31
0.0
  0
LINE
  5
939
330
1F
100
AcDbEntity
  8
OBJECT2
100
AcDbLine
 10
24.32167186189247
 20
8.022258973027671
 30
0.0
 11
24.70493348723676
 21
8.022258973027671
 31
0.0
  0
LINE
  5
93A
330
1F
100
AcDbEntity
  8
OBJECT2
100
AcDbLine
 10
24.32167186189247
 20
8.137175487962647
 30
0.0
 11
24.32167186189247
 21
8.022258973027671
 31
0.0
  0
LINE
  5
93B
330
1F
100
AcDbEntity
  8
OBJECT2
100
AcDbLine
 10
25.0345383957571
 20
8.137175487962647
 30
0.0
 11
24.32167186189247
 21
8.137175487962647
 31
0.0
  0
LINE
  5
93C
330
1F
100
AcDbEntity
  8
OBJECT2
100
AcDbLine
 10
25.0345383957571
 20
8.252091941716781
 30
0.0
 11
25.0345383957571
 21
8.137175487962647
 31
0.0
  0
LINE
  5
93D
330
1F
100
AcDbEntity
  8
OBJECT2
100
AcDbLine
 10
19.20323240699656
 20
8.224167516151137
 30
0.0
 11
19.80836687315923
 21
8.224167516151137
 31
0.0
  0
LINE
  5
93E
330
1F
100
AcDbEntity
  8
OBJECT2
100
AcDbLine
 10
18.76753559135949
 20
8.381417664289745
 30
0.0
 11
20.2440636887963
 21
8.381417664289745
 31
0.0
  0
ARC
  5
93F
330
1F
100
AcDbEntity
  8
OBJECT1
100
AcDbCircle
 10
19.5057996400779
 20
6.939447018664534
 30
0.0
 40
1.950009549161386
100
AcDbArc
 50
67.75331333034873
 51
112.2466866696512
  0
ARC
  5
940
330
1F
100
AcDbEntity
  8
OBJECT1
100
AcDbCircle
 10
19.65708325661856
 20
7.336070857392169
 30
0.0
 40
0.1611097531359178
100
AcDbArc
 50
200.1140965647279
 51
339.885903435272
  0
ARC
  5
941
330
1F
100
AcDbEntity
  8
OBJECT2
100
AcDbCircle
 10
19.65708325661856
 20
7.225262555863881
 30
0.0
 40
0.1611097531359178
100
AcDbArc
 50
20.11409656472802
 51
159.8859034352719
  0
ARC
  5
942
330
1F
100
AcDbEntity
  8
OBJECT1
100
AcDbCircle
 10
19.35451602353723
 20
7.336070857392169
 30
0.0
 40
0.1611097531359178
100
AcDbArc
 50
200.1140965647279
 51
339.885903435272
  0
LINE
  5
943
330
1F
100
AcDbEntity
  8
OBJECT2
100
AcDbLine
 10
19.80655269928306
 20
12.6079859617267
 30
0.0
 11
19.39334759767101
 21
12.19478293959854
 31
0.0
  0
LINE
  5
944
330
1F
100
AcDbEntity
  8
OBJECT1
100
AcDbLine
 10
19.78738405544314
 20
13.12473689764227
 30
0.0
 11
19.68863242021692
 21
13.02598482400985
 31
0.0
  0
LINE
  5
945
330
1F
100
AcDbEntity
  8
OBJECT2
100
AcDbLine
 10
19.68863307782592
 20
12.99858509937231
 30
0.0
 11
19.46296199522067
 21
13.22425486675926
 31
0.0
  0
ARC
  5
946
330
1F
100
AcDbEntity
  8
OBJECT1
100
AcDbCircle
 10
19.70233414576154
 20
13.01228529049566
 30
0.0
 40
0.019375616093625
100
AcDbArc
 50
135.0052489999898
 51
224.9978030000032
  0
LINE
  5
947
330
1F
100
AcDbEntity
  8
OBJECT1
100
AcDbLine
 10
19.58911379349058
 20
13.32300715959474
 30
0.0
 11
19.49036215826428
 21
13.22425508596233
 31
0.0
  0
LINE
  5
948
330
1F
100
AcDbEntity
  8
OBJECT2
100
AcDbLine
 10
19.70194856758258
 20
13.23757101412504
 30
0.0
 11
19.57579764612493
 21
13.11142009266731
 31
0.0
  0
ARC
  5
949
330
1F
100
AcDbEntity
  8
OBJECT1
100
AcDbCircle
 10
19.47666196714101
 20
13.23795834592847
 30
0.0
 40
0.01937747609325
100
AcDbArc
 50
225.0074160000098
 51
314.9930109999982
  0
ARC
  5
94A
330
1F
100
AcDbEntity
  8
OBJECT1
100
AcDbCircle
 10
19.77367904185254
 20
13.1384362119534
 30
0.0
 40
0.0193777860931875
100
AcDbArc
 50
315.0122379999954
 51
44.99213399999552
  0
ARC
  5
94B
330
1F
100
AcDbEntity
  8
OBJECT1
100
AcDbCircle
 10
19.60281376541101
 20
13.30930455723775
 30
0.0
 40
0.0193765460934375
100
AcDbArc
 50
45.00065600000828
 51
134.9947549999977
  0
LINE
  5
94C
330
1F
100
AcDbEntity
  8
OBJECT1
100
AcDbLine
 10
19.61651527175263
 20
13.32300606357946
 30
0.0
 11
19.78738295942787
 21
13.15213662227981
 31
0.0
  0
LINE
  5
94D
330
1F
100
AcDbEntity
  8
OBJECT2
100
AcDbLine
 10
19.69773515600377
 20
12.08117920117922
 30
0.0
 11
19.88754965999482
 21
12.08116955624466
 31
0.0
  0
LINE
  5
94E
330
1F
100
AcDbEntity
  8
OBJECT1
100
AcDbLine
 10
19.90692457988314
 20
11.49510387638512
 30
0.0
 11
19.75622006629251
 21
11.64581847331633
 31
0.0
  0
LINE
  5
94F
330
1F
100
AcDbEntity
  8
OBJECT2
100
AcDbLine
 10
19.69773559440986
 20
11.98811654291647
 30
0.0
 11
19.88754944079182
 21
11.98813605198868
 31
0.0
  0
LINE
  5
950
330
1F
100
AcDbEntity
  8
OBJECT2
100
AcDbLine
 10
19.75622006629251
 20
11.672118456212
 30
0.0
 11
20.27537182067502
 21
12.1912702105945
 31
0.0
  0
LINE
  5
951
330
1F
100
AcDbEntity
  8
OBJECT2
100
AcDbLine
 10
19.41271155740622
 20
11.3450712201673
 30
0.0
 11
19.41271089979705
 21
11.71310109833685
 31
0.0
  0
LINE
  5
952
330
1F
100
AcDbEntity
  8
OBJECT2
100
AcDbLine
 10
19.51811973189404
 20
11.40616618126734
 30
0.0
 11
19.51811951269104
 21
11.6429995219908
 31
0.0
  0
LINE
  5
953
330
1F
100
AcDbEntity
  8
OBJECT2
100
AcDbLine
 10
19.69773515600377
 20
12.08117920117922
 30
0.0
 11
19.69773559440986
 21
11.98811654291647
 31
0.0
  0
LINE
  5
954
330
1F
100
AcDbEntity
  8
OBJECT2
100
AcDbLine
 10
19.75621962788634
 20
11.6983995876447
 30
0.0
 11
19.38641069769838
 21
12.06823701423035
 31
0.0
  0
ARC
  5
955
330
1F
100
AcDbEntity
  8
OBJECT2
100
AcDbCircle
 10
19.5243391802579
 20
11.48414613472011
 30
0.0
 40
0.1208618456326875
100
AcDbArc
 50
24.13735999999776
 51
84.62607199999231
  0
ARC
  5
956
330
1F
100
AcDbEntity
  8
OBJECT2
100
AcDbCircle
 10
19.43212308420507
 20
11.68178618788089
 30
0.0
 40
0.0194118860863125
100
AcDbArc
 50
180.1098330000031
 51
269.8895570000004
  0
ARC
  5
957
330
1F
100
AcDbEntity
  8
OBJECT2
100
AcDbCircle
 10
19.39339867198345
 20
11.71309802949408
 30
0.0
 40
0.0193117561065
100
AcDbArc
 50
359.9243320000029
 51
69.60372900001018
  0
ARC
  5
958
330
1F
100
AcDbEntity
  8
OBJECT2
100
AcDbCircle
 10
19.49865866520403
 20
11.64293156904281
 30
0.0
 40
0.01946179607625
100
AcDbArc
 50
0.2000269999978384
 51
89.74889800000187
  0
ARC
  5
959
330
1F
100
AcDbEntity
  8
OBJECT2
100
AcDbCircle
 10
19.53753038188071
 20
11.62379821092454
 30
0.0
 40
0.0194118860863125
100
AcDbArc
 50
180.0394900000009
 51
264.4665989999988
  0
LINE
  5
95A
330
1F
100
AcDbEntity
  8
OBJECT2
100
AcDbLine
 10
19.49874393519372
 20
11.66239307413889
 30
0.0
 11
19.43208560048211
 21
11.66237422267591
 31
0.0
  0
ARC
  5
95B
330
1F
100
AcDbEntity
  8
OBJECT2
100
AcDbCircle
 10
19.74310120167899
 20
11.6852592411314
 30
0.0
 40
0.018568376256375
100
AcDbArc
 50
314.9525599999924
 51
45.04744000000756
  0
LINE
  5
95C
330
1F
100
AcDbEntity
  8
OBJECT2
100
AcDbLine
 10
19.75622006629251
 20
11.672118456212
 30
0.0
 11
19.75622006629251
 21
11.672118456212
 31
0.0
  0
ARC
  5
95D
330
1F
100
AcDbEntity
  8
OBJECT1
100
AcDbCircle
 10
19.76936019360272
 20
11.65896868396721
 30
0.0
 40
0.0185897662520625
100
AcDbArc
 50
134.9790430000088
 51
225.0218810000037
  0
ARC
  5
95E
330
1F
100
AcDbEntity
  8
OBJECT1
100
AcDbCircle
 10
19.52469867327301
 20
11.48419962026625
 30
0.0
 40
0.120513095703
100
AcDbArc
 50
359.9669039999993
 51
24.18408999999996
  0
ARC
  5
95F
330
1F
100
AcDbEntity
  8
OBJECT1
100
AcDbCircle
 10
19.65156003184165
 20
11.54118342801401
 30
0.0
 40
0.01855907625825
100
AcDbArc
 50
134.9142059999954
 51
204.219603999999
  0
LINE
  5
960
330
1F
100
AcDbEntity
  8
OBJECT1
100
AcDbLine
 10
19.63845651144214
 20
11.554326404964
 30
0.0
 11
19.75622006629251
 21
11.672118456212
 31
0.0
  0
LINE
  5
961
330
1F
100
AcDbEntity
  8
OBJECT2
100
AcDbLine
 10
19.43223772740441
 20
12.11981549377155
 30
0.0
 11
19.40851075000322
 21
12.09608851637036
 31
0.0
  0
LINE
  5
962
330
1F
100
AcDbEntity
  8
OBJECT1
100
AcDbLine
 10
20.44862904088515
 20
12.02365922275163
 30
0.0
 11
20.46561662026895
 21
12.00667208177397
 31
0.0
  0
LINE
  5
963
330
1F
100
AcDbEntity
  8
OBJECT1
100
AcDbLine
 10
20.46561596265985
 20
11.97927104191807
 30
0.0
 11
20.32472275874113
 21
11.83837783799937
 31
0.0
  0
LINE
  5
964
330
1F
100
AcDbEntity
  8
OBJECT2
100
AcDbLine
 10
19.97284573471055
 20
12.03464304958057
 30
0.0
 11
19.88754965999482
 21
11.94938555460315
 31
0.0
  0
LINE
  5
965
330
1F
100
AcDbEntity
  8
OBJECT2
100
AcDbLine
 10
19.92007347531566
 20
11.4951045339943
 30
0.0
 11
20.44232870659286
 21
12.0173580116471
 31
0.0
  0
LINE
  5
966
330
1F
100
AcDbEntity
  8
OBJECT1
100
AcDbLine
 10
20.22520478962414
 20
11.51395577777698
 30
0.0
 11
20.12645271599175
 21
11.61270741300329
 31
0.0
  0
LINE
  5
967
330
1F
100
AcDbEntity
  8
OBJECT2
100
AcDbLine
 10
20.09905342976032
 20
11.61270675539411
 30
0.0
 11
20.32472275874113
 21
11.83837783799937
 31
0.0
  0
ARC
  5
968
330
1F
100
AcDbEntity
  8
OBJECT1
100
AcDbCircle
 10
20.11275318247749
 20
11.59900568745854
 30
0.0
 40
0.019375616093625
100
AcDbArc
 50
45.00524099999625
 51
134.9969400000095
  0
LINE
  5
969
330
1F
100
AcDbEntity
  8
OBJECT2
100
AcDbLine
 10
19.92007347531566
 20
11.4951045339943
 30
0.0
 11
19.90692457988314
 21
11.49510387638512
 31
0.0
  0
LINE
  5
96A
330
1F
100
AcDbEntity
  8
OBJECT2
100
AcDbLine
 10
19.9137722642111
 20
11.48880419970203
 30
0.0
 11
19.9137722642111
 21
11.48880419970203
 31
0.0
  0
LINE
  5
96B
330
1F
100
AcDbEntity
  8
OBJECT2
100
AcDbLine
 10
19.88754944079182
 20
11.98813605198868
 30
0.0
 11
19.88754965999482
 21
11.94938555460315
 31
0.0
  0
ARC
  5
96C
330
1F
100
AcDbEntity
  8
OBJECT1
100
AcDbCircle
 10
19.94446134993652
 20
11.48551681144158
 30
0.0
 40
0.0193762360935
100
AcDbArc
 50
225.0035099999956
 51
314.9960630000079
  0
LINE
  5
96D
330
1F
100
AcDbEntity
  8
OBJECT1
100
AcDbLine
 10
19.9137722642111
 20
11.48880419970203
 30
0.0
 11
19.93076115881325
 21
11.47181486669377
 31
0.0
  0
LINE
  5
96E
330
1F
100
AcDbEntity
  8
OBJECT1
100
AcDbLine
 10
19.95816154105987
 20
11.47181486669377
 30
0.0
 11
20.09905342976032
 21
11.61270675539411
 31
0.0
  0
ARC
  5
96F
330
1F
100
AcDbEntity
  8
OBJECT1
100
AcDbCircle
 10
20.33842645711337
 20
11.82467808528218
 30
0.0
 40
0.01937747609325
100
AcDbArc
 50
135.0087279999979
 51
224.9930109999936
  0
LINE
  5
970
330
1F
100
AcDbEntity
  8
OBJECT1
100
AcDbLine
 10
20.42347505157662
 20
11.71222603972946
 30
0.0
 11
20.32472319714714
 21
11.81097789415883
 31
0.0
  0
ARC
  5
971
330
1F
100
AcDbEntity
  8
OBJECT1
100
AcDbCircle
 10
20.40977376443791
 20
11.698525629403
 30
0.0
 40
0.0193759260935625
100
AcDbArc
 50
315.0000000000046
 51
44.99825299999881
  0
LINE
  5
972
330
1F
100
AcDbEntity
  8
OBJECT1
100
AcDbLine
 10
20.42347439396744
 20
11.68482499987354
 30
0.0
 11
20.25260429505857
 21
11.51395665458921
 31
0.0
  0
ARC
  5
973
330
1F
100
AcDbEntity
  8
OBJECT1
100
AcDbCircle
 10
20.23890410393522
 20
11.5276607913676
 30
0.0
 40
0.0193777860931875
100
AcDbArc
 50
225.0122380000093
 51
314.9916990000068
  0
LINE
  5
974
330
1F
100
AcDbEntity
  8
OBJECT2
100
AcDbLine
 10
20.33803912530996
 20
11.59939148484057
 30
0.0
 11
20.21188754624296
 21
11.72554262550135
 31
0.0
  0
LINE
  5
975
330
1F
100
AcDbEntity
  8
OBJECT2
100
AcDbLine
 10
19.88754965999482
 20
12.08116955624466
 30
0.0
 11
19.88754965999482
 21
12.11992027283325
 31
0.0
  0
LINE
  5
976
330
1F
100
AcDbEntity
  8
OBJECT2
100
AcDbLine
 10
19.97284573471055
 20
12.03464304958057
 30
0.0
 11
19.88754965999482
 21
12.11992027283325
 31
0.0
  0
ARC
  5
977
330
1F
100
AcDbEntity
  8
OBJECT2
100
AcDbCircle
 10
20.4208178721079
 20
12.47454763763221
 30
0.0
 40
0.0186337862431875
100
AcDbArc
 50
0.0790559999979922
 51
89.88687100001634
  0
ARC
  5
978
330
1F
100
AcDbEntity
  8
OBJECT2
100
AcDbCircle
 10
20.30304072666772
 20
12.47460353441198
 30
0.0
 40
0.0185872862525625
100
AcDbArc
 50
89.96262400000231
 51
180.0367429999996
  0
LINE
  5
979
330
1F
100
AcDbEntity
  8
OBJECT2
100
AcDbLine
 10
20.43945210486314
 20
12.47457328439
 30
0.0
 11
20.43945298167531
 21
12.26378499340581
 31
0.0
  0
LINE
  5
97A
330
1F
100
AcDbEntity
  8
OBJECT2
100
AcDbLine
 10
20.28445362256994
 20
12.26379419993425
 30
0.0
 11
20.28445362256994
 21
12.47459169744687
 31
0.0
  0
LINE
  5
97B
330
1F
100
AcDbEntity
  8
OBJECT2
100
AcDbLine
 10
20.42085360220633
 20
12.24518561393676
 30
0.0
 11
20.30305146761765
 21
12.24517618820527
 31
0.0
  0
LINE
  5
97C
330
1F
100
AcDbEntity
  8
OBJECT2
100
AcDbLine
 10
20.43945320087832
 20
12.36917365882145
 30
0.0
 11
20.43945320087832
 21
12.36917365882145
 31
0.0
  0
ARC
  5
97D
330
1F
100
AcDbEntity
  8
OBJECT1
100
AcDbCircle
 10
20.38185321333458
 20
12.11730452274244
 30
0.0
 40
0.019379336092875
100
AcDbArc
 50
90.04512000000705
 51
224.961548000005
  0
ARC
  5
97E
330
1F
100
AcDbEntity
  8
OBJECT2
100
AcDbCircle
 10
20.42084790292682
 20
12.26379025427923
 30
0.0
 40
0.0186046462490625
100
AcDbArc
 50
270.0173800000094
 51
359.983902000001
  0
ARC
  5
97F
330
1F
100
AcDbEntity
  8
OBJECT2
100
AcDbCircle
 10
20.30305694769399
 20
12.26377885572018
 30
0.0
 40
0.0186034062493125
100
AcDbArc
 50
179.9530030000025
 51
269.9826199999904
  0
LINE
  5
980
330
1F
100
AcDbEntity
  8
OBJECT2
100
AcDbLine
 10
20.42085447901843
 20
12.49318143198138
 30
0.0
 11
20.30305278283592
 21
12.49319085771287
 31
0.0
  0
LINE
  5
981
330
1F
100
AcDbEntity
  8
OBJECT2
100
AcDbLine
 10
20.44232870659286
 20
12.01737817832846
 30
0.0
 11
20.44232936420204
 21
12.0294113301959
 31
0.0
  0
LINE
  5
982
330
1F
100
AcDbEntity
  8
OBJECT1
100
AcDbLine
 10
20.44232936420204
 20
12.0294113301959
 30
0.0
 11
20.36814008923085
 21
12.10360981169555
 31
0.0
  0
ARC
  5
983
330
1F
100
AcDbEntity
  8
OBJECT1
100
AcDbCircle
 10
20.4519067842111
 20
11.99297232905673
 30
0.0
 40
0.0193815060924375
100
AcDbArc
 50
315.0157319999914
 51
44.97902699998848
  0
ARC
  5
984
330
1F
100
AcDbEntity
  8
OBJECT1
100
AcDbCircle
 10
19.73032758188168
 20
12.70401224835878
 30
0.0
 40
0.0195371260610625
100
AcDbArc
 50
135.0312190000084
 51
224.9687809999915
  0
LINE
  5
985
330
1F
100
AcDbEntity
  8
OBJECT1
100
AcDbLine
 10
19.81253694873632
 20
12.81330481063539
 30
0.0
 11
19.82952474732329
 21
12.83029304762834
 31
0.0
  0
ARC
  5
986
330
1F
100
AcDbEntity
  8
OBJECT1
100
AcDbCircle
 10
19.83723620130115
 20
12.67941437720825
 30
0.0
 40
0.077739924326625
100
AcDbArc
 50
225.0679929999961
 51
269.9183350000078
  0
ARC
  5
987
330
1F
100
AcDbEntity
  8
OBJECT1
100
AcDbCircle
 10
19.81582389859076
 20
12.84399345795475
 30
0.0
 40
0.019375616093625
100
AcDbArc
 50
315.0017549999901
 51
44.99825299999881
  0
LINE
  5
988
330
1F
100
AcDbEntity
  8
OBJECT2
100
AcDbLine
 10
19.80626543964635
 20
12.8196526023897
 30
0.0
 11
19.80626609725553
 21
12.80757999397181
 31
0.0
  0
LINE
  5
989
330
1F
100
AcDbEntity
  8
OBJECT1
100
AcDbLine
 10
19.81253694873632
 20
12.81330481063539
 30
0.0
 11
19.81253694873632
 21
12.81330481063539
 31
0.0
  0
LINE
  5
98A
330
1F
100
AcDbEntity
  8
OBJECT1
100
AcDbLine
 10
19.80626609725553
 20
12.80757999397181
 30
0.0
 11
19.71650529465503
 21
12.71781919137133
 31
0.0
  0
LINE
  5
98B
330
1F
100
AcDbEntity
  8
OBJECT1
100
AcDbLine
 10
19.71650507545203
 20
12.690204647737
 30
0.0
 11
19.78233109615226
 21
12.62437862703671
 31
0.0
  0
LINE
  5
98C
330
1F
100
AcDbEntity
  8
OBJECT2
100
AcDbLine
 10
20.09783527420024
 20
12.60014049399184
 30
0.0
 11
20.06688085044104
 21
12.60013119399371
 31
0.0
  0
LINE
  5
98D
330
1F
100
AcDbEntity
  8
OBJECT2
100
AcDbLine
 10
20.1133504610722
 20
12.60013119399371
 30
0.0
 11
20.14436192481992
 21
12.60012158399562
 31
0.0
  0
LINE
  5
98E
330
1F
100
AcDbEntity
  8
OBJECT1
100
AcDbLine
 10
19.82952474732329
 20
12.85769342987503
 30
0.0
 11
19.68863307782592
 21
12.99858509937231
 31
0.0
  0
ARC
  5
98F
330
1F
100
AcDbEntity
  8
OBJECT1
100
AcDbCircle
 10
19.30836816177259
 20
13.35144042665063
 30
0.0
 40
0.0193808860925625
100
AcDbArc
 50
45.01311499998924
 51
134.9842679999901
  0
LINE
  5
990
330
1F
100
AcDbEntity
  8
OBJECT2
100
AcDbLine
 10
19.36930694069389
 20
11.15719600563006
 30
0.0
 11
19.3693067214908
 21
11.31495841928124
 31
0.0
  0
ARC
  5
991
330
1F
100
AcDbEntity
  8
OBJECT1
100
AcDbCircle
 10
19.34993859689734
 20
11.157192059975
 30
0.0
 40
0.019368176095125
100
AcDbArc
 50
0.0111240000026246
 51
110.6098920000111
  0
LINE
  5
992
330
1F
100
AcDbEntity
  8
OBJECT2
100
AcDbLine
 10
19.3631192767734
 20
11.67049153111574
 30
0.0
 11
19.36311993438241
 21
11.98647953447957
 31
0.0
  0
ARC
  5
993
330
1F
100
AcDbEntity
  8
OBJECT2
100
AcDbCircle
 10
19.38265289967546
 20
11.75864141044312
 30
0.0
 40
0.01953371606175
100
AcDbArc
 50
179.9368289999995
 51
249.3921360000141
  0
LINE
  5
994
330
1F
100
AcDbEntity
  8
OBJECT1
100
AcDbLine
 10
19.32206901050512
 20
13.36514785147492
 30
0.0
 11
19.46296199522067
 21
13.22425486675926
 31
0.0
  0
ARC
  5
995
330
1F
100
AcDbEntity
  8
OBJECT2
100
AcDbCircle
 10
19.51775914286367
 20
11.98664371756999
 30
0.0
 40
0.1546394388226875
100
AcDbArc
 50
134.9485169999959
 51
180.0608830000016
  0
LINE
  5
996
330
1F
100
AcDbEntity
  8
OBJECT2
100
AcDbLine
 10
19.40012886347244
 20
11.73119872200624
 30
0.0
 11
19.37577715735611
 21
11.74035702576836
 31
0.0
  0
LINE
  5
997
330
1F
100
AcDbEntity
  8
OBJECT1
100
AcDbLine
 10
20.49460666309204
 20
12.60167393040226
 30
0.0
 11
20.49460666309213
 21
12.1367087697457
 31
0.0
  0
LINE
  5
998
330
1F
100
AcDbEntity
  8
OBJECT2
100
AcDbLine
 10
20.59927165301821
 20
12.18133963364339
 30
0.0
 11
20.59924325862545
 21
12.55701467211188
 31
0.0
  0
LINE
  5
999
330
1F
100
AcDbEntity
  8
OBJECT2
100
AcDbLine
 10
20.5294949930674
 20
12.1813680280361
 30
0.0
 11
20.5294949930674
 21
12.5570430665046
 31
0.0
  0
LINE
  5
99A
330
1F
100
AcDbEntity
  8
OBJECT2
100
AcDbLine
 10
20.56438332304284
 20
12.13667758130946
 30
0.0
 11
20.56438332304284
 21
12.6017051188385
 31
0.0
  0
LINE
  5
99B
330
1F
100
AcDbEntity
  8
OBJECT1
100
AcDbLine
 10
20.63140831686456
 20
12.60167393040226
 30
0.0
 11
20.63140831686465
 21
12.1367087697457
 31
0.0
  0
LINE
  5
99C
330
1F
100
AcDbEntity
  8
OBJECT1
100
AcDbLine
 10
20.63140831686456
 20
12.60167377645079
 30
0.0
 11
19.83712550375696
 21
12.60167467030706
 31
0.0
  0
LINE
  5
99D
330
1F
100
AcDbEntity
  8
OBJECT1
100
AcDbLine
 10
20.63140831686465
 20
12.13673902856916
 30
0.0
 11
20.38183786912057
 21
12.13668382669176
 31
0.0
  0
LINE
  5
99E
330
1F
100
AcDbEntity
  8
OBJECT1
100
AcDbLine
 10
20.97453332576717
 20
14.39119811854529
 30
0.0
 11
20.8507833257672
 21
14.39119811854529
 31
0.0
  0
LINE
  5
99F
330
1F
100
AcDbEntity
  8
OBJECT2
100
AcDbLine
 10
20.95782496830972
 20
14.3661324190811
 30
0.0
 11
20.86749168322456
 21
14.3661324190811
 31
0.0
  0
LINE
  5
9A0
330
1F
100
AcDbEntity
  8
OBJECT2
100
AcDbLine
 10
20.95782496830972
 20
14.31503618576678
 30
0.0
 11
20.86749168322456
 21
14.31503618576678
 31
0.0
  0
LINE
  5
9A1
330
1F
100
AcDbEntity
  8
OBJECT2
100
AcDbLine
 10
20.97453332576717
 20
14.34058430242395
 30
0.0
 11
20.8507833257672
 21
14.34058430242395
 31
0.0
  0
LINE
  5
9A2
330
1F
100
AcDbEntity
  8
OBJECT2
100
AcDbLine
 10
20.72515832576718
 20
12.539299886234
 30
0.0
 11
20.74390085456429
 21
12.42600723669548
 31
0.0
  0
LINE
  5
9A3
330
1F
100
AcDbEntity
  8
OBJECT2
100
AcDbLine
 10
20.65015085456429
 20
12.539299886234
 30
0.0
 11
20.63140832576718
 21
12.42600723669548
 31
0.0
  0
LINE
  5
9A4
330
1F
100
AcDbEntity
  8
OBJECT2
100
AcDbLine
 10
21.17516579697008
 20
12.539299886234
 30
0.0
 11
21.19390832576718
 21
12.42600723669548
 31
0.0
  0
LINE
  5
9A5
330
1F
100
AcDbEntity
  8
OBJECT2
100
AcDbLine
 10
21.10015832576718
 20
12.539299886234
 30
0.0
 11
21.08141579697007
 21
12.42600723669548
 31
0.0
  0
LINE
  5
9A6
330
1F
100
AcDbEntity
  8
OBJECT2
100
AcDbLine
 10
21.19390832576718
 20
12.13620441021051
 30
0.0
 11
21.19390832576718
 21
12.60123194773955
 31
0.0
  0
LINE
  5
9A7
330
1F
100
AcDbEntity
  8
OBJECT2
100
AcDbLine
 10
20.63140832576718
 20
12.60169135906172
 30
0.0
 11
20.63153814451357
 21
12.13616329499995
 31
0.0
  0
LINE
  5
9A8
330
1F
100
AcDbEntity
  8
OBJECT2
100
AcDbLine
 10
20.63134348111274
 20
12.60169137708457
 30
0.0
 11
20.63147315261648
 21
12.13669132306342
 31
0.0
  0
LINE
  5
9A9
330
1F
100
AcDbEntity
  8
OBJECT2
100
AcDbLine
 10
21.29857331569334
 20
12.18086646254444
 30
0.0
 11
21.29854492130059
 21
12.55654150101293
 31
0.0
  0
LINE
  5
9AA
330
1F
100
AcDbEntity
  8
OBJECT2
100
AcDbLine
 10
21.22879665574254
 20
12.18089485693715
 30
0.0
 11
21.22879665574254
 21
12.55656989540564
 31
0.0
  0
LINE
  5
9AB
330
1F
100
AcDbEntity
  8
OBJECT2
100
AcDbLine
 10
21.26368498571799
 20
12.13620441021051
 30
0.0
 11
21.26368498571799
 21
12.60123194773955
 31
0.0
  0
LINE
  5
9AC
330
1F
100
AcDbEntity
  8
OBJECT2
100
AcDbLine
 10
21.04699883311125
 20
12.78137040992747
 30
0.0
 11
21.04699883311125
 21
12.3839767077584
 31
0.0
  0
LINE
  5
9AD
330
1F
100
AcDbEntity
  8
OBJECT2
100
AcDbLine
 10
20.77831781842312
 20
12.78137040992747
 30
0.0
 11
20.77831781842312
 21
12.3839767077584
 31
0.0
  0
LINE
  5
9AE
330
1F
100
AcDbEntity
  8
OBJECT2
100
AcDbLine
 10
20.72515832576718
 20
12.19908281391398
 30
0.0
 11
20.74390085456429
 21
12.3123754634525
 31
0.0
  0
LINE
  5
9AF
330
1F
100
AcDbEntity
  8
OBJECT2
100
AcDbLine
 10
20.65015085456429
 20
12.19908281391398
 30
0.0
 11
20.63140832576718
 21
12.3123754634525
 31
0.0
  0
LINE
  5
9B0
330
1F
100
AcDbEntity
  8
OBJECT2
100
AcDbLine
 10
20.72515832576718
 20
12.19908281391398
 30
0.0
 11
20.65015085456429
 21
12.19908281391398
 31
0.0
  0
LINE
  5
9B1
330
1F
100
AcDbEntity
  8
OBJECT2
100
AcDbLine
 10
20.72515832576718
 20
12.19908281391398
 30
0.0
 11
20.74396569921873
 21
12.13669132306342
 31
0.0
  0
LINE
  5
9B2
330
1F
100
AcDbEntity
  8
OBJECT2
100
AcDbLine
 10
20.65015085456429
 20
12.19908281391398
 30
0.0
 11
20.63134348111274
 21
12.13669132306342
 31
0.0
  0
ARC
  5
9B3
330
1F
100
AcDbEntity
  8
OBJECT1
100
AcDbCircle
 10
20.75247800154227
 20
12.06964143607428
 30
0.0
 40
0.01125
100
AcDbArc
 50
69.66247610455789
 51
142.9091302274679
  0
ARC
  5
9B4
330
1F
100
AcDbEntity
  8
OBJECT1
100
AcDbCircle
 10
20.71956041703982
 20
12.06341059660526
 30
0.0
 40
0.01125
100
AcDbArc
 50
270.0
 51
322.9091302274679
  0
LINE
  5
9B5
330
1F
100
AcDbEntity
  8
OBJECT1
100
AcDbLine
 10
20.64078332576713
 20
12.05216059660525
 30
0.0
 11
20.71956041703982
 21
12.05216059660525
 31
0.0
  0
LINE
  5
9B6
330
1F
100
AcDbEntity
  8
OBJECT1
100
AcDbLine
 10
20.72853431750576
 20
12.05662593667072
 30
0.0
 11
20.74350410107633
 21
12.07642609600882
 31
0.0
  0
LINE
  5
9B7
330
1F
100
AcDbEntity
  8
OBJECT1
100
AcDbLine
 10
20.64078332576713
 20
12.05216059660525
 30
0.0
 11
20.63140832576718
 21
12.07091059660525
 31
0.0
  0
LINE
  5
9B8
330
1F
100
AcDbEntity
  8
OBJECT1
100
AcDbLine
 10
20.63140832576718
 20
12.07091059660525
 30
0.0
 11
20.63140832576718
 21
12.13669134108627
 31
0.0
  0
LINE
  5
9B9
330
1F
100
AcDbEntity
  8
OBJECT2
100
AcDbLine
 10
21.17516579697008
 20
12.19908281391398
 30
0.0
 11
21.19390832576718
 21
12.3123754634525
 31
0.0
  0
LINE
  5
9BA
330
1F
100
AcDbEntity
  8
OBJECT2
100
AcDbLine
 10
21.10015832576718
 20
12.19908281391398
 30
0.0
 11
21.08141579697007
 21
12.3123754634525
 31
0.0
  0
LINE
  5
9BB
330
1F
100
AcDbEntity
  8
OBJECT2
100
AcDbLine
 10
21.10015832576718
 20
12.19908281391398
 30
0.0
 11
21.08135095231563
 21
12.13669132306342
 31
0.0
  0
LINE
  5
9BC
330
1F
100
AcDbEntity
  8
OBJECT2
100
AcDbLine
 10
21.17516579697008
 20
12.19908281391398
 30
0.0
 11
21.19397317042163
 21
12.13669132306342
 31
0.0
  0
LINE
  5
9BD
330
1F
100
AcDbEntity
  8
OBJECT2
100
AcDbLine
 10
21.10015832576718
 20
12.19908281391398
 30
0.0
 11
21.17516579697008
 21
12.19908281391398
 31
0.0
  0
ARC
  5
9BE
330
1F
100
AcDbEntity
  8
OBJECT1
100
AcDbCircle
 10
21.07283864999209
 20
12.06964143607428
 30
0.0
 40
0.01125
100
AcDbArc
 50
37.09086977253202
 51
110.3375238954421
  0
ARC
  5
9BF
330
1F
100
AcDbEntity
  8
OBJECT1
100
AcDbCircle
 10
21.10575623449447
 20
12.06341059660526
 30
0.0
 40
0.01125
100
AcDbArc
 50
217.090869772532
 51
270.0
  0
LINE
  5
9C0
330
1F
100
AcDbEntity
  8
OBJECT1
100
AcDbLine
 10
21.10575623449447
 20
12.05216059660525
 30
0.0
 11
21.18453332576715
 21
12.05216059660525
 31
0.0
  0
LINE
  5
9C1
330
1F
100
AcDbEntity
  8
OBJECT1
100
AcDbLine
 10
21.09678233402852
 20
12.05662593667072
 30
0.0
 11
21.08181255045804
 21
12.07642609600882
 31
0.0
  0
LINE
  5
9C2
330
1F
100
AcDbEntity
  8
OBJECT1
100
AcDbLine
 10
21.18453332576715
 20
12.05216059660525
 30
0.0
 11
21.19390832576718
 21
12.07091059660525
 31
0.0
  0
LINE
  5
9C3
330
1F
100
AcDbEntity
  8
OBJECT1
100
AcDbLine
 10
21.19390832576718
 20
12.07091059660525
 30
0.0
 11
21.19390832576718
 21
12.1371949280816
 31
0.0
  0
ARC
  5
9C4
330
1F
100
AcDbEntity
  8
OBJECT1
100
AcDbCircle
 10
20.91265832576718
 20
12.50179510076218
 30
0.0
 40
0.4496345041569306
100
AcDbArc
 50
249.6624761045578
 51
290.3375238954421
  0
LINE
  5
9C5
330
1F
100
AcDbEntity
  8
OBJECT1
100
AcDbLine
 10
20.5450222116115
 20
13.8870219271184
 30
0.0
 11
20.76265832576715
 21
13.8870219271184
 31
0.0
  0
LINE
  5
9C6
330
1F
100
AcDbEntity
  8
OBJECT2
100
AcDbLine
 10
20.7232152686893
 20
13.9901469271184
 30
0.0
 11
20.7232152686893
 21
13.8870219271184
 31
0.0
  0
ARC
  5
9C7
330
1F
100
AcDbEntity
  8
OBJECT1
100
AcDbCircle
 10
20.5450222116115
 20
13.9788969271184
 30
0.0
 40
0.01125
100
AcDbArc
 50
90.0
 51
180.0
  0
ARC
  5
9C8
330
1F
100
AcDbEntity
  8
OBJECT1
100
AcDbCircle
 10
20.5450222116115
 20
13.89827192711839
 30
0.0
 40
0.01125
100
AcDbArc
 50
180.0
 51
270.0
  0
LINE
  5
9C9
330
1F
100
AcDbEntity
  8
OBJECT1
100
AcDbLine
 10
20.5337722116115
 20
13.9788969271184
 30
0.0
 11
20.5337722116115
 21
13.89827192711839
 31
0.0
  0
LINE
  5
9CA
330
1F
100
AcDbEntity
  8
OBJECT1
100
AcDbLine
 10
20.77203332576718
 20
13.6680219271184
 30
0.0
 11
20.77203332576718
 21
13.70889692711839
 31
0.0
  0
ARC
  5
9CB
330
1F
100
AcDbEntity
  8
OBJECT1
100
AcDbCircle
 10
20.7064083257672
 20
13.66202192711839
 30
0.0
 40
0.046875
100
AcDbArc
 50
90.0
 51
180.0
  0
ARC
  5
9CC
330
1F
100
AcDbEntity
  8
OBJECT1
100
AcDbCircle
 10
20.7064083257672
 20
13.66202192711839
 30
0.0
 40
0.1218749999999997
100
AcDbArc
 50
146.742835847962
 51
180.0
  0
ARC
  5
9CD
330
1F
100
AcDbEntity
  8
OBJECT2
100
AcDbCircle
 10
20.7064083257672
 20
13.66202192711839
 30
0.0
 40
0.0796875
100
AcDbArc
 50
90.0
 51
180.0
  0
LINE
  5
9CE
330
1F
100
AcDbEntity
  8
OBJECT2
100
AcDbLine
 10
20.7064083257672
 20
13.74170942711839
 30
0.0
 11
20.73922082576715
 21
13.74170942711839
 31
0.0
  0
ARC
  5
9CF
330
1F
100
AcDbEntity
  8
OBJECT2
100
AcDbCircle
 10
20.73922082576715
 20
13.76514692711839
 30
0.0
 40
0.0234375
100
AcDbArc
 50
270.0
 51
0.0
  0
LINE
  5
9D0
330
1F
100
AcDbEntity
  8
OBJECT1
100
AcDbLine
 10
20.7064083257672
 20
13.70889692711839
 30
0.0
 11
20.77203332576718
 21
13.70889692711839
 31
0.0
  0
LINE
  5
9D1
330
1F
100
AcDbEntity
  8
OBJECT1
100
AcDbLine
 10
20.76265832576715
 20
13.8870219271184
 30
0.0
 11
20.6044943067667
 21
13.72885790811789
 31
0.0
  0
LINE
  5
9D2
330
1F
100
AcDbEntity
  8
OBJECT2
100
AcDbLine
 10
20.76265832576715
 20
13.8870219271184
 30
0.0
 11
20.76265832576715
 21
13.76514692711839
 31
0.0
  0
LINE
  5
9D3
330
1F
100
AcDbEntity
  8
OBJECT2
100
AcDbLine
 10
20.95782496830972
 20
14.26614675126363
 30
0.0
 11
20.86749168322456
 21
14.26614675126363
 31
0.0
  0
LINE
  5
9D4
330
1F
100
AcDbEntity
  8
OBJECT2
100
AcDbLine
 10
20.95782496830972
 20
14.21505051794929
 30
0.0
 11
20.86749168322456
 21
14.21505051794929
 31
0.0
  0
LINE
  5
9D5
330
1F
100
AcDbEntity
  8
OBJECT2
100
AcDbLine
 10
20.95782496830972
 20
14.16629452771438
 30
0.0
 11
20.86749168322456
 21
14.16629452771438
 31
0.0
  0
LINE
  5
9D6
330
1F
100
AcDbEntity
  8
OBJECT2
100
AcDbLine
 10
20.95782496830972
 20
14.11519829440006
 30
0.0
 11
20.86749168322456
 21
14.11519829440006
 31
0.0
  0
LINE
  5
9D7
330
1F
100
AcDbEntity
  8
OBJECT2
100
AcDbLine
 10
20.97453332576717
 20
14.2905914685152
 30
0.0
 11
20.8507833257672
 21
14.2905914685152
 31
0.0
  0
LINE
  5
9D8
330
1F
100
AcDbEntity
  8
OBJECT2
100
AcDbLine
 10
20.97453332576717
 20
14.24059863460646
 30
0.0
 11
20.8507833257672
 21
14.24059863460646
 31
0.0
  0
LINE
  5
9D9
330
1F
100
AcDbEntity
  8
OBJECT2
100
AcDbLine
 10
20.97453332576717
 20
14.14074641105723
 30
0.0
 11
20.8507833257672
 21
14.14074641105723
 31
0.0
  0
LINE
  5
9DA
330
1F
100
AcDbEntity
  8
OBJECT2
100
AcDbLine
 10
20.97453332576717
 20
14.19067252283183
 30
0.0
 11
20.8507833257672
 21
14.19067252283183
 31
0.0
  0
LINE
  5
9DB
330
1F
100
AcDbEntity
  8
OBJECT2
100
AcDbLine
 10
20.97453332576717
 20
14.09075357714848
 30
0.0
 11
20.8507833257672
 21
14.09075357714848
 31
0.0
  0
LINE
  5
9DC
330
1F
100
AcDbEntity
  8
OBJECT2
100
AcDbLine
 10
20.95782496830972
 20
14.06630885989691
 30
0.0
 11
20.86749168322456
 21
14.06630885989691
 31
0.0
  0
LINE
  5
9DD
330
1F
100
AcDbEntity
  8
OBJECT2
100
AcDbLine
 10
20.95782496830972
 20
14.01521262658257
 30
0.0
 11
20.86749168322456
 21
14.01521262658257
 31
0.0
  0
LINE
  5
9DE
330
1F
100
AcDbEntity
  8
OBJECT2
100
AcDbLine
 10
20.97453332576717
 20
14.04076074323974
 30
0.0
 11
20.8507833257672
 21
14.04076074323974
 31
0.0
  0
LINE
  5
9DF
330
1F
100
AcDbEntity
  8
OBJECT2
100
AcDbLine
 10
20.97453332576717
 20
13.9901469271184
 30
0.0
 11
20.8507833257672
 21
13.9901469271184
 31
0.0
  0
LINE
  5
9E0
330
1F
100
AcDbEntity
  8
OBJECT2
100
AcDbLine
 10
21.10210138284498
 20
13.9901469271184
 30
0.0
 11
21.10210138284498
 21
13.8870219271184
 31
0.0
  0
ARC
  5
9E1
330
1F
100
AcDbEntity
  8
OBJECT1
100
AcDbCircle
 10
21.28029443992287
 20
13.9788969271184
 30
0.0
 40
0.01125
100
AcDbArc
 50
0.0
 51
90.0
  0
ARC
  5
9E2
330
1F
100
AcDbEntity
  8
OBJECT1
100
AcDbCircle
 10
21.28029443992287
 20
13.89827192711839
 30
0.0
 40
0.01125
100
AcDbArc
 50
270.0
 51
0.0
  0
LINE
  5
9E3
330
1F
100
AcDbEntity
  8
OBJECT1
100
AcDbLine
 10
21.29154443992286
 20
13.9788969271184
 30
0.0
 11
21.29154443992286
 21
13.89827192711839
 31
0.0
  0
LINE
  5
9E4
330
1F
100
AcDbEntity
  8
OBJECT1
100
AcDbLine
 10
21.06265832576713
 20
13.8870219271184
 30
0.0
 11
21.28029443992287
 21
13.8870219271184
 31
0.0
  0
LINE
  5
9E5
330
1F
100
AcDbEntity
  8
OBJECT1
100
AcDbLine
 10
20.97453332576717
 20
13.9901469271184
 30
0.0
 11
21.28029443992287
 21
13.9901469271184
 31
0.0
  0
LINE
  5
9E6
330
1F
100
AcDbEntity
  8
OBJECT2
100
AcDbLine
 10
20.91265832576718
 20
13.70889692711839
 30
0.0
 11
20.91265832576718
 21
13.6680219271184
 31
0.0
  0
LINE
  5
9E7
330
1F
100
AcDbEntity
  8
OBJECT1
100
AcDbLine
 10
21.05328332576718
 20
13.70889692711839
 30
0.0
 11
21.05328332576718
 21
13.6680219271184
 31
0.0
  0
LINE
  5
9E8
330
1F
100
AcDbEntity
  8
OBJECT2
100
AcDbLine
 10
20.8507833257672
 20
13.6680219271184
 30
0.0
 11
20.97453332576717
 21
13.6680219271184
 31
0.0
  0
LINE
  5
9E9
330
1F
100
AcDbEntity
  8
OBJECT1
100
AcDbLine
 10
20.97453332576717
 20
13.6680219271184
 30
0.0
 11
21.05328332576718
 21
13.6680219271184
 31
0.0
  0
ARC
  5
9EA
330
1F
100
AcDbEntity
  8
OBJECT1
100
AcDbCircle
 10
21.11890832576717
 20
13.66202192711839
 30
0.0
 40
0.046875
100
AcDbArc
 50
0.0
 51
90.0
  0
ARC
  5
9EB
330
1F
100
AcDbEntity
  8
OBJECT1
100
AcDbCircle
 10
21.11890832576717
 20
13.66202192711839
 30
0.0
 40
0.1218749999999997
100
AcDbArc
 50
0.0
 51
33.25716415203795
  0
ARC
  5
9EC
330
1F
100
AcDbEntity
  8
OBJECT2
100
AcDbCircle
 10
21.11890832576717
 20
13.66202192711839
 30
0.0
 40
0.0796875
100
AcDbArc
 50
0.0
 51
90.0
  0
LINE
  5
9ED
330
1F
100
AcDbEntity
  8
OBJECT2
100
AcDbLine
 10
21.11890832576717
 20
13.74170942711839
 30
0.0
 11
21.08609582576713
 21
13.74170942711839
 31
0.0
  0
LINE
  5
9EE
330
1F
100
AcDbEntity
  8
OBJECT1
100
AcDbLine
 10
21.05328332576718
 20
13.70889692711839
 30
0.0
 11
21.11890832576717
 21
13.70889692711839
 31
0.0
  0
ARC
  5
9EF
330
1F
100
AcDbEntity
  8
OBJECT2
100
AcDbCircle
 10
21.08609582576713
 20
13.76514692711839
 30
0.0
 40
0.0234375
100
AcDbArc
 50
180.0
 51
270.0
  0
LINE
  5
9F0
330
1F
100
AcDbEntity
  8
OBJECT1
100
AcDbLine
 10
21.06265832576713
 20
13.8870219271184
 30
0.0
 11
21.22082234476767
 21
13.72885790811789
 31
0.0
  0
LINE
  5
9F1
330
1F
100
AcDbEntity
  8
OBJECT2
100
AcDbLine
 10
21.06265832576713
 20
13.8870219271184
 30
0.0
 11
21.06265832576713
 21
13.76514692711839
 31
0.0
  0
LINE
  5
9F2
330
1F
100
AcDbEntity
  8
OBJECT1
100
AcDbLine
 10
20.77203332576718
 20
13.6680219271184
 30
0.0
 11
20.8507833257672
 21
13.6680219271184
 31
0.0
  0
LINE
  5
9F3
330
1F
100
AcDbEntity
  8
OBJECT2
100
AcDbLine
 10
21.06265832576713
 20
13.8870219271184
 30
0.0
 11
20.76265832576715
 21
13.8870219271184
 31
0.0
  0
LINE
  5
9F4
330
1F
100
AcDbEntity
  8
OBJECT2
100
AcDbLine
 10
20.77203332576718
 20
13.70889692711839
 30
0.0
 11
21.05328332576718
 21
13.70889692711839
 31
0.0
  0
LINE
  5
9F5
330
1F
100
AcDbEntity
  8
OBJECT1
100
AcDbLine
 10
20.5450222116115
 20
13.9901469271184
 30
0.0
 11
20.8507833257672
 21
13.9901469271184
 31
0.0
  0
ARC
  5
9F6
330
1F
100
AcDbEntity
  8
OBJECT1
100
AcDbCircle
 10
20.7064083257672
 20
13.34327192711839
 30
0.0
 40
0.1218749999999997
100
AcDbArc
 50
180.0
 51
213.2571641520434
  0
ARC
  5
9F7
330
1F
100
AcDbEntity
  8
OBJECT1
100
AcDbCircle
 10
20.7064083257672
 20
13.34327192711839
 30
0.0
 40
0.046875
100
AcDbArc
 50
180.0
 51
270.0
  0
LINE
  5
9F8
330
1F
100
AcDbEntity
  8
OBJECT2
100
AcDbLine
 10
20.7064083257672
 20
13.2635844271184
 30
0.0
 11
20.75509691381481
 21
13.2635844271184
 31
0.0
  0
LINE
  5
9F9
330
1F
100
AcDbEntity
  8
OBJECT2
100
AcDbLine
 10
20.7232152686893
 20
12.98173165171656
 30
0.0
 11
20.63140832576718
 21
12.99110665023441
 31
0.0
  0
LINE
  5
9FA
330
1F
100
AcDbEntity
  8
OBJECT1
100
AcDbLine
 10
20.70088608629808
 20
13.02564352092616
 30
0.0
 11
20.5337722116115
 21
12.98935737065381
 31
0.0
  0
LINE
  5
9FB
330
1F
100
AcDbEntity
  8
OBJECT1
100
AcDbLine
 10
20.76786665910049
 20
13.11306359378506
 30
0.0
 11
20.76168311124732
 21
13.08585598323116
 31
0.0
  0
ARC
  5
9FC
330
1F
100
AcDbEntity
  8
OBJECT1
100
AcDbCircle
 10
20.68397721180142
 20
13.10351641492339
 30
0.0
 40
0.0796875
100
AcDbArc
 50
282.25071092493
 51
347.1957339347115
  0
ARC
  5
9FD
330
1F
100
AcDbEntity
  8
OBJECT2
100
AcDbCircle
 10
20.7064083257672
 20
13.34327192711839
 30
0.0
 40
0.0796875
100
AcDbArc
 50
180.0
 51
270.0
  0
LINE
  5
9FE
330
1F
100
AcDbEntity
  8
OBJECT1
100
AcDbLine
 10
20.76786665910049
 20
13.11306359378506
 30
0.0
 11
20.6044943067667
 21
13.27643594611889
 31
0.0
  0
LINE
  5
9FF
330
1F
100
AcDbEntity
  8
OBJECT1
100
AcDbLine
 10
20.5337722116115
 20
12.8651469271184
 30
0.0
 11
20.55252221161149
 21
12.8557719271184
 31
0.0
  0
LINE
  5
A00
330
1F
100
AcDbEntity
  8
OBJECT1
100
AcDbLine
 10
20.63140832576718
 20
12.80518379753097
 30
0.0
 11
20.63140832576718
 21
12.8557719271184
 31
0.0
  0
LINE
  5
A01
330
1F
100
AcDbEntity
  8
OBJECT1
100
AcDbLine
 10
20.74859582576718
 20
12.78137040992747
 30
0.0
 11
20.63140832576718
 21
12.80518379753097
 31
0.0
  0
LINE
  5
A02
330
1F
100
AcDbEntity
  8
OBJECT2
100
AcDbLine
 10
20.7232152686893
 20
12.86514692563625
 30
0.0
 11
20.63140832576718
 21
12.8557719271184
 31
0.0
  0
LINE
  5
A03
330
1F
100
AcDbEntity
  8
OBJECT1
100
AcDbLine
 10
20.74859582576718
 20
12.78137040992747
 30
0.0
 11
20.74859582576718
 21
12.70497210354272
 31
0.0
  0
LINE
  5
A04
330
1F
100
AcDbEntity
  8
OBJECT1
100
AcDbLine
 10
20.55252221161149
 20
12.8557719271184
 30
0.0
 11
20.63140832576718
 21
12.8557719271184
 31
0.0
  0
LINE
  5
A05
330
1F
100
AcDbEntity
  8
OBJECT1
100
AcDbLine
 10
20.63140832576718
 20
12.66747210354274
 30
0.0
 11
20.63140832576718
 21
12.60169135906172
 31
0.0
  0
LINE
  5
A06
330
1F
100
AcDbEntity
  8
OBJECT2
100
AcDbLine
 10
20.72515832576718
 20
12.539299886234
 30
0.0
 11
20.65015085456429
 21
12.539299886234
 31
0.0
  0
LINE
  5
A07
330
1F
100
AcDbEntity
  8
OBJECT2
100
AcDbLine
 10
20.72515832576718
 20
12.539299886234
 30
0.0
 11
20.74396569921873
 21
12.60169137708457
 31
0.0
  0
LINE
  5
A08
330
1F
100
AcDbEntity
  8
OBJECT2
100
AcDbLine
 10
20.65015085456429
 20
12.539299886234
 30
0.0
 11
20.63134348111274
 21
12.60169137708457
 31
0.0
  0
LINE
  5
A09
330
1F
100
AcDbEntity
  8
OBJECT1
100
AcDbLine
 10
20.64078332576713
 20
12.68622210354274
 30
0.0
 11
20.7298458257672
 21
12.68622210354274
 31
0.0
  0
LINE
  5
A0A
330
1F
100
AcDbEntity
  8
OBJECT1
100
AcDbLine
 10
20.64078332576713
 20
12.68622210354274
 30
0.0
 11
20.63140832576718
 21
12.66747210354274
 31
0.0
  0
ARC
  5
A0B
330
1F
100
AcDbEntity
  8
OBJECT1
100
AcDbCircle
 10
20.7298458257672
 20
12.70497210354272
 30
0.0
 40
0.01875
100
AcDbArc
 50
270.0
 51
0.0
  0
LINE
  5
A0C
330
1F
100
AcDbEntity
  8
OBJECT1
100
AcDbLine
 10
20.5337722116115
 20
12.8651469271184
 30
0.0
 11
20.5337722116115
 21
12.98935737065381
 31
0.0
  0
LINE
  5
A0D
330
1F
100
AcDbEntity
  8
OBJECT2
100
AcDbLine
 10
20.7232152686893
 20
12.98173165072846
 30
0.0
 11
20.7232152686893
 21
12.86514692662435
 31
0.0
  0
LINE
  5
A0E
330
1F
100
AcDbEntity
  8
OBJECT2
100
AcDbLine
 10
20.87089758928627
 20
13.5022675817681
 30
0.0
 11
20.95441906224809
 21
13.5022675817681
 31
0.0
  0
LINE
  5
A0F
330
1F
100
AcDbEntity
  8
OBJECT2
100
AcDbLine
 10
20.93676893337528
 20
13.49580710303287
 30
0.0
 11
20.92124091808739
 21
13.5022675817681
 31
0.0
  0
LINE
  5
A10
330
1F
100
AcDbEntity
  8
OBJECT2
100
AcDbLine
 10
20.93307483430712
 20
13.37139707560102
 30
0.0
 11
20.89224181722725
 21
13.37139707560102
 31
0.0
  0
LINE
  5
A11
330
1F
100
AcDbEntity
  8
OBJECT2
100
AcDbLine
 10
20.88481783477991
 20
13.36304477982222
 30
0.0
 11
20.94049881675446
 21
13.36304477982222
 31
0.0
  0
LINE
  5
A12
330
1F
100
AcDbEntity
  8
OBJECT2
100
AcDbLine
 10
20.88481783477991
 20
13.34634078219509
 30
0.0
 11
20.94049881675446
 21
13.34634078219509
 31
0.0
  0
LINE
  5
A13
330
1F
100
AcDbEntity
  8
OBJECT2
100
AcDbLine
 10
20.88481783477991
 20
13.32963678456795
 30
0.0
 11
20.94049881675446
 21
13.32963678456795
 31
0.0
  0
LINE
  5
A14
330
1F
100
AcDbEntity
  8
OBJECT2
100
AcDbLine
 10
20.88481783477991
 20
13.31293278694082
 30
0.0
 11
20.94049881675446
 21
13.31293278694082
 31
0.0
  0
LINE
  5
A15
330
1F
100
AcDbEntity
  8
OBJECT2
100
AcDbLine
 10
20.93307483430712
 20
13.35469263252603
 30
0.0
 11
20.89224181722725
 21
13.35469263252603
 31
0.0
  0
LINE
  5
A16
330
1F
100
AcDbEntity
  8
OBJECT2
100
AcDbLine
 10
20.93307483430712
 20
13.3379886348989
 30
0.0
 11
20.89224181722725
 21
13.3379886348989
 31
0.0
  0
LINE
  5
A17
330
1F
100
AcDbEntity
  8
OBJECT2
100
AcDbLine
 10
20.93307483430712
 20
13.32128463727176
 30
0.0
 11
20.89224181722725
 21
13.32128463727176
 31
0.0
  0
LINE
  5
A18
330
1F
100
AcDbEntity
  8
OBJECT2
100
AcDbLine
 10
20.93307483430712
 20
13.30458063964463
 30
0.0
 11
20.89224181722725
 21
13.30458063964463
 31
0.0
  0
LINE
  5
A19
330
1F
100
AcDbEntity
  8
OBJECT2
100
AcDbLine
 10
21.00640832576718
 20
13.29639692711839
 30
0.0
 11
20.81890832576718
 21
13.29639692711839
 31
0.0
  0
LINE
  5
A1A
330
1F
100
AcDbEntity
  8
OBJECT2
100
AcDbLine
 10
20.97453332576717
 20
13.4651469271184
 30
0.0
 11
20.8507833257672
 21
13.4651469271184
 31
0.0
  0
LINE
  5
A1B
330
1F
100
AcDbEntity
  8
OBJECT2
100
AcDbLine
 10
21.00640832576718
 20
13.37974862896673
 30
0.0
 11
20.81890832576718
 21
13.37974862896673
 31
0.0
  0
LINE
  5
A1C
330
1F
100
AcDbEntity
  8
OBJECT2
100
AcDbLine
 10
20.94049881675446
 20
13.29639692711839
 30
0.0
 11
20.94049881675446
 21
13.37974862896673
 31
0.0
  0
LINE
  5
A1D
330
1F
100
AcDbEntity
  8
OBJECT1
100
AcDbLine
 10
21.00640832576718
 20
13.37974862896673
 30
0.0
 11
21.00640832576718
 21
13.29639692711839
 31
0.0
  0
LINE
  5
A1E
330
1F
100
AcDbEntity
  8
OBJECT2
100
AcDbLine
 10
20.93676893337528
 20
13.49580710303287
 30
0.0
 11
20.94709901763378
 21
13.5022675817681
 31
0.0
  0
LINE
  5
A1F
330
1F
100
AcDbEntity
  8
OBJECT2
100
AcDbLine
 10
20.96087954098329
 20
13.49580710303287
 30
0.0
 11
20.95441906224809
 21
13.5022675817681
 31
0.0
  0
LINE
  5
A20
330
1F
100
AcDbEntity
  8
OBJECT2
100
AcDbLine
 10
20.96087954098329
 20
13.4651469271184
 30
0.0
 11
20.96087954098329
 21
13.49580710303287
 31
0.0
  0
LINE
  5
A21
330
1F
100
AcDbEntity
  8
OBJECT2
100
AcDbLine
 10
20.93676893337528
 20
13.49580710303287
 30
0.0
 11
20.93676893337528
 21
13.4651469271184
 31
0.0
  0
LINE
  5
A22
330
1F
100
AcDbEntity
  8
OBJECT1
100
AcDbLine
 10
21.03922082576713
 20
13.4651469271184
 30
0.0
 11
20.97453332576717
 21
13.4651469271184
 31
0.0
  0
LINE
  5
A23
330
1F
100
AcDbEntity
  8
OBJECT1
100
AcDbLine
 10
21.03922082576713
 20
13.37974862896673
 30
0.0
 11
21.00640832576718
 21
13.37974862896673
 31
0.0
  0
LINE
  5
A24
330
1F
100
AcDbEntity
  8
OBJECT1
100
AcDbLine
 10
21.03922082576713
 20
13.4651469271184
 30
0.0
 11
21.03922082576713
 21
13.37974862896673
 31
0.0
  0
LINE
  5
A25
330
1F
100
AcDbEntity
  8
OBJECT1
100
AcDbLine
 10
20.81890832576718
 20
13.37974862896673
 30
0.0
 11
20.81890832576718
 21
13.29639692711839
 31
0.0
  0
LINE
  5
A26
330
1F
100
AcDbEntity
  8
OBJECT2
100
AcDbLine
 10
20.88481783477991
 20
13.29639692711839
 30
0.0
 11
20.88481783477991
 21
13.37974862896673
 31
0.0
  0
LINE
  5
A27
330
1F
100
AcDbEntity
  8
OBJECT2
100
AcDbLine
 10
20.88854771815909
 20
13.49580710303287
 30
0.0
 11
20.90407573344689
 21
13.5022675817681
 31
0.0
  0
LINE
  5
A28
330
1F
100
AcDbEntity
  8
OBJECT2
100
AcDbLine
 10
20.88854771815909
 20
13.49580710303287
 30
0.0
 11
20.87821763390059
 21
13.5022675817681
 31
0.0
  0
LINE
  5
A29
330
1F
100
AcDbEntity
  8
OBJECT2
100
AcDbLine
 10
20.86443696206842
 20
13.49580710303287
 30
0.0
 11
20.87089758928627
 21
13.5022675817681
 31
0.0
  0
LINE
  5
A2A
330
1F
100
AcDbEntity
  8
OBJECT1
100
AcDbLine
 10
20.8507833257672
 20
13.4651469271184
 30
0.0
 11
20.78609582576715
 21
13.4651469271184
 31
0.0
  0
LINE
  5
A2B
330
1F
100
AcDbEntity
  8
OBJECT1
100
AcDbLine
 10
20.81890832576718
 20
13.37974862896673
 30
0.0
 11
20.78609582576715
 21
13.37974862896673
 31
0.0
  0
LINE
  5
A2C
330
1F
100
AcDbEntity
  8
OBJECT1
100
AcDbLine
 10
20.78609582576715
 20
13.4651469271184
 30
0.0
 11
20.78609582576715
 21
13.37974862896673
 31
0.0
  0
LINE
  5
A2D
330
1F
100
AcDbEntity
  8
OBJECT2
100
AcDbLine
 10
20.86443696206842
 20
13.4651469271184
 30
0.0
 11
20.86443696206842
 21
13.49580710303287
 31
0.0
  0
LINE
  5
A2E
330
1F
100
AcDbEntity
  8
OBJECT2
100
AcDbLine
 10
20.88854771815909
 20
13.49580710303287
 30
0.0
 11
20.88854771815909
 21
13.4651469271184
 31
0.0
  0
ARC
  5
A2F
330
1F
100
AcDbEntity
  8
OBJECT1
100
AcDbCircle
 10
21.11890832576717
 20
13.34327192711839
 30
0.0
 40
0.1218749999999997
100
AcDbArc
 50
326.7428358479566
 51
0.0
  0
ARC
  5
A30
330
1F
100
AcDbEntity
  8
OBJECT1
100
AcDbCircle
 10
21.11890832576717
 20
13.34327192711839
 30
0.0
 40
0.046875
100
AcDbArc
 50
270.0
 51
0.0
  0
LINE
  5
A31
330
1F
100
AcDbEntity
  8
OBJECT2
100
AcDbLine
 10
21.07021973771947
 20
13.2635844271184
 30
0.0
 11
21.11890832576717
 21
13.2635844271184
 31
0.0
  0
LINE
  5
A32
330
1F
100
AcDbEntity
  8
OBJECT1
100
AcDbLine
 10
21.00640832576718
 20
13.29639692711839
 30
0.0
 11
21.11890832576717
 21
13.29639692711839
 31
0.0
  0
LINE
  5
A33
330
1F
100
AcDbEntity
  8
OBJECT2
100
AcDbLine
 10
20.87797082576719
 20
13.23137407846611
 30
0.0
 11
20.94734582576717
 21
13.23137407846611
 31
0.0
  0
LINE
  5
A34
330
1F
100
AcDbEntity
  8
OBJECT2
100
AcDbLine
 10
20.88481783477991
 20
13.18126208558471
 30
0.0
 11
20.94049881675446
 21
13.18126208558471
 31
0.0
  0
LINE
  5
A35
330
1F
100
AcDbEntity
  8
OBJECT2
100
AcDbLine
 10
20.88481783477991
 20
13.19796608321184
 30
0.0
 11
20.94049881675446
 21
13.19796608321184
 31
0.0
  0
LINE
  5
A36
330
1F
100
AcDbEntity
  8
OBJECT2
100
AcDbLine
 10
20.88481783477991
 20
13.21467008083896
 30
0.0
 11
20.94049881675446
 21
13.21467008083896
 31
0.0
  0
LINE
  5
A37
330
1F
100
AcDbEntity
  8
OBJECT2
100
AcDbLine
 10
20.93307483430712
 20
13.17290993828853
 30
0.0
 11
20.89224181722725
 21
13.17290993828853
 31
0.0
  0
LINE
  5
A38
330
1F
100
AcDbEntity
  8
OBJECT2
100
AcDbLine
 10
20.93307483430712
 20
13.18961393591565
 30
0.0
 11
20.89224181722725
 21
13.18961393591565
 31
0.0
  0
LINE
  5
A39
330
1F
100
AcDbEntity
  8
OBJECT2
100
AcDbLine
 10
20.93307483430712
 20
13.2063179335428
 30
0.0
 11
20.89224181722725
 21
13.2063179335428
 31
0.0
  0
LINE
  5
A3A
330
1F
100
AcDbEntity
  8
OBJECT2
100
AcDbLine
 10
20.93307483430712
 20
13.22302193116992
 30
0.0
 11
20.89224181722725
 21
13.22302193116992
 31
0.0
  0
LINE
  5
A3B
330
1F
100
AcDbEntity
  8
OBJECT2
100
AcDbLine
 10
20.80953332576715
 20
13.23137407846611
 30
0.0
 11
21.01578332576713
 21
13.23137407846611
 31
0.0
  0
LINE
  5
A3C
330
1F
100
AcDbEntity
  8
OBJECT2
100
AcDbLine
 10
20.94049881675446
 20
13.18126208558471
 30
0.0
 11
20.94049881675446
 21
13.23137407846611
 31
0.0
  0
LINE
  5
A3D
330
1F
100
AcDbEntity
  8
OBJECT2
100
AcDbLine
 10
20.94049881675446
 20
13.18126208558471
 30
0.0
 11
20.93307483430712
 21
13.17290993828853
 31
0.0
  0
LINE
  5
A3E
330
1F
100
AcDbEntity
  8
OBJECT2
100
AcDbLine
 10
21.03365225562726
 20
13.21777363573381
 30
0.0
 11
21.05744999243379
 21
13.11306359378506
 31
0.0
  0
LINE
  5
A3F
330
1F
100
AcDbEntity
  8
OBJECT2
100
AcDbLine
 10
20.89224181722725
 20
13.17290993828853
 30
0.0
 11
20.88481783477991
 21
13.18126208558471
 31
0.0
  0
LINE
  5
A40
330
1F
100
AcDbEntity
  8
OBJECT2
100
AcDbLine
 10
20.88481783477991
 20
13.18126208558471
 30
0.0
 11
20.88481783477991
 21
13.23137407846611
 31
0.0
  0
LINE
  5
A41
330
1F
100
AcDbEntity
  8
OBJECT2
100
AcDbLine
 10
21.10210138284498
 20
12.98173165171656
 30
0.0
 11
21.19390832576718
 21
12.99110665023441
 31
0.0
  0
LINE
  5
A42
330
1F
100
AcDbEntity
  8
OBJECT1
100
AcDbLine
 10
21.12443056523619
 20
13.02564352092616
 30
0.0
 11
21.29145769154047
 21
12.98937620670105
 31
0.0
  0
LINE
  5
A43
330
1F
100
AcDbEntity
  8
OBJECT2
100
AcDbLine
 10
21.10210138284498
 20
12.98173165171656
 30
0.0
 11
20.9407111825756
 21
12.99110665023441
 31
0.0
  0
LINE
  5
A44
330
1F
100
AcDbEntity
  8
OBJECT1
100
AcDbLine
 10
21.05744999243379
 20
13.11306359378506
 30
0.0
 11
21.06363354028696
 21
13.08585598323116
 31
0.0
  0
ARC
  5
A45
330
1F
100
AcDbEntity
  8
OBJECT1
100
AcDbCircle
 10
21.14133943973286
 20
13.10351641492339
 30
0.0
 40
0.0796875
100
AcDbArc
 50
192.8042660652884
 51
257.7492890750699
  0
ARC
  5
A46
330
1F
100
AcDbEntity
  8
OBJECT2
100
AcDbCircle
 10
21.11890832576717
 20
13.34327192711839
 30
0.0
 40
0.0796875
100
AcDbArc
 50
270.0
 51
0.0
  0
LINE
  5
A47
330
1F
100
AcDbEntity
  8
OBJECT1
100
AcDbLine
 10
21.05744999243379
 20
13.11306359378506
 30
0.0
 11
21.22082234476767
 21
13.27643594611889
 31
0.0
  0
ARC
  5
A48
330
1F
100
AcDbEntity
  8
OBJECT2
100
AcDbCircle
 10
21.07021973771947
 20
13.22608442711839
 30
0.0
 40
0.0375
100
AcDbArc
 50
90.0
 51
192.8042660652884
  0
LINE
  5
A49
330
1F
100
AcDbEntity
  8
OBJECT1
100
AcDbLine
 10
21.07672082576718
 20
12.78137040992747
 30
0.0
 11
21.07672082576718
 21
12.70497210354272
 31
0.0
  0
LINE
  5
A4A
330
1F
100
AcDbEntity
  8
OBJECT1
100
AcDbLine
 10
21.19390832576718
 20
12.80518379753097
 30
0.0
 11
21.19390832576718
 21
12.8557719271184
 31
0.0
  0
LINE
  5
A4B
330
1F
100
AcDbEntity
  8
OBJECT1
100
AcDbLine
 10
21.29153835279811
 20
12.86514692514223
 30
0.0
 11
21.27279443992287
 21
12.8557719271184
 31
0.0
  0
LINE
  5
A4C
330
1F
100
AcDbEntity
  8
OBJECT1
100
AcDbLine
 10
21.19390832576718
 20
12.8557719271184
 30
0.0
 11
21.27279443992287
 21
12.8557719271184
 31
0.0
  0
LINE
  5
A4D
330
1F
100
AcDbEntity
  8
OBJECT1
100
AcDbLine
 10
21.19390832576718
 20
12.80518379753097
 30
0.0
 11
21.07672082576718
 21
12.78137040992747
 31
0.0
  0
LINE
  5
A4E
330
1F
100
AcDbEntity
  8
OBJECT2
100
AcDbLine
 10
21.10210138284498
 20
12.86514692563625
 30
0.0
 11
21.19390832576718
 21
12.8557719271184
 31
0.0
  0
LINE
  5
A4F
330
1F
100
AcDbEntity
  8
OBJECT2
100
AcDbLine
 10
21.10210138284498
 20
12.86514692563625
 30
0.0
 11
20.9407111825756
 21
12.8557719271184
 31
0.0
  0
LINE
  5
A50
330
1F
100
AcDbEntity
  8
OBJECT1
100
AcDbLine
 10
21.19390832576718
 20
12.60228147819249
 30
0.0
 11
21.19390832576718
 21
12.66747210354274
 31
0.0
  0
LINE
  5
A51
330
1F
100
AcDbEntity
  8
OBJECT2
100
AcDbLine
 10
21.10015832576718
 20
12.539299886234
 30
0.0
 11
21.08135095231563
 21
12.60169137708457
 31
0.0
  0
LINE
  5
A52
330
1F
100
AcDbEntity
  8
OBJECT2
100
AcDbLine
 10
21.17516579697008
 20
12.539299886234
 30
0.0
 11
21.19397317042163
 21
12.60169137708457
 31
0.0
  0
LINE
  5
A53
330
1F
100
AcDbEntity
  8
OBJECT2
100
AcDbLine
 10
21.10015832576718
 20
12.539299886234
 30
0.0
 11
21.17516579697008
 21
12.539299886234
 31
0.0
  0
LINE
  5
A54
330
1F
100
AcDbEntity
  8
OBJECT1
100
AcDbLine
 10
21.09547082576717
 20
12.68622210354274
 30
0.0
 11
21.18453332576715
 21
12.68622210354274
 31
0.0
  0
LINE
  5
A55
330
1F
100
AcDbEntity
  8
OBJECT1
100
AcDbLine
 10
21.18453332576715
 20
12.68622210354274
 30
0.0
 11
21.19390832576718
 21
12.66747210354274
 31
0.0
  0
ARC
  5
A56
330
1F
100
AcDbEntity
  8
OBJECT1
100
AcDbCircle
 10
21.09547082576717
 20
12.70497210354272
 30
0.0
 40
0.01875
100
AcDbArc
 50
180.0
 51
270.0
  0
LINE
  5
A57
330
1F
100
AcDbEntity
  8
OBJECT1
100
AcDbLine
 10
21.29153835279811
 20
12.86514692514223
 30
0.0
 11
21.29145769154047
 21
12.98937620670105
 31
0.0
  0
LINE
  5
A58
330
1F
100
AcDbEntity
  8
OBJECT2
100
AcDbLine
 10
21.10210138284498
 20
12.98173165072846
 30
0.0
 11
21.10210138284498
 21
12.86514692563625
 31
0.0
  0
LINE
  5
A59
330
1F
100
AcDbEntity
  8
OBJECT2
100
AcDbLine
 10
20.7232152686893
 20
12.98173165171656
 30
0.0
 11
20.88460546895868
 21
12.99110665023441
 31
0.0
  0
LINE
  5
A5A
330
1F
100
AcDbEntity
  8
OBJECT2
100
AcDbLine
 10
20.63140832576718
 20
12.80518379753097
 30
0.0
 11
21.19390832576718
 21
12.80518379753097
 31
0.0
  0
LINE
  5
A5B
330
1F
100
AcDbEntity
  8
OBJECT2
100
AcDbLine
 10
20.63140832576718
 20
12.8557719271184
 30
0.0
 11
21.19390832576718
 21
12.8557719271184
 31
0.0
  0
LINE
  5
A5C
330
1F
100
AcDbEntity
  8
OBJECT2
100
AcDbLine
 10
21.07672082576718
 20
12.78137040992747
 30
0.0
 11
20.74859582576718
 21
12.78137040992747
 31
0.0
  0
LINE
  5
A5D
330
1F
100
AcDbEntity
  8
OBJECT2
100
AcDbLine
 10
20.7232152686893
 20
12.86514692563625
 30
0.0
 11
20.88460546895868
 21
12.8557719271184
 31
0.0
  0
LINE
  5
A5E
330
1F
100
AcDbEntity
  8
OBJECT1
100
AcDbLine
 10
20.7064083257672
 20
13.29639692711839
 30
0.0
 11
20.81890832576718
 21
13.29639692711839
 31
0.0
  0
LINE
  5
A5F
330
1F
100
AcDbEntity
  8
OBJECT2
100
AcDbLine
 10
20.79166439590702
 20
13.21777363573381
 30
0.0
 11
20.76786665910049
 21
13.11306359378506
 31
0.0
  0
ARC
  5
A60
330
1F
100
AcDbEntity
  8
OBJECT2
100
AcDbCircle
 10
20.75509691381481
 20
13.22608442711839
 30
0.0
 40
0.0375
100
AcDbArc
 50
347.1957339347115
 51
90.0
  0
LINE
  5
A61
330
1F
100
AcDbEntity
  8
OBJECT1
100
AcDbLine
 10
21.24078332576718
 20
13.66202192711839
 30
0.0
 11
21.24078332576718
 21
13.34327192711839
 31
0.0
  0
LINE
  5
A62
330
1F
100
AcDbEntity
  8
OBJECT1
100
AcDbLine
 10
21.16578332576716
 20
13.66202192711839
 30
0.0
 11
21.16578332576716
 21
13.34327192711839
 31
0.0
  0
LINE
  5
A63
330
1F
100
AcDbEntity
  8
OBJECT2
100
AcDbLine
 10
21.1985958257672
 20
13.66202192711839
 30
0.0
 11
21.1985958257672
 21
13.34327192711839
 31
0.0
  0
LINE
  5
A64
330
1F
100
AcDbEntity
  8
OBJECT1
100
AcDbLine
 10
20.97453332576717
 20
13.6680219271184
 30
0.0
 11
20.97453332576717
 21
13.4651469271184
 31
0.0
  0
LINE
  5
A65
330
1F
100
AcDbEntity
  8
OBJECT1
100
AcDbLine
 10
20.58453332576718
 20
13.66202192711839
 30
0.0
 11
20.58453332576718
 21
13.34327192711839
 31
0.0
  0
LINE
  5
A66
330
1F
100
AcDbEntity
  8
OBJECT1
100
AcDbLine
 10
20.6595333257672
 20
13.66202192711839
 30
0.0
 11
20.6595333257672
 21
13.34327192711839
 31
0.0
  0
LINE
  5
A67
330
1F
100
AcDbEntity
  8
OBJECT2
100
AcDbLine
 10
20.62672082576717
 20
13.66202192711839
 30
0.0
 11
20.62672082576717
 21
13.34327192711839
 31
0.0
  0
LINE
  5
A68
330
1F
100
AcDbEntity
  8
OBJECT1
100
AcDbLine
 10
20.8507833257672
 20
13.6680219271184
 30
0.0
 11
20.8507833257672
 21
13.4651469271184
 31
0.0
  0
LINE
  5
A69
330
1F
100
AcDbEntity
  8
OBJECT1
100
AcDbLine
 10
20.97453332576717
 20
14.39119811854529
 30
0.0
 11
20.97453332576717
 21
13.9901469271184
 31
0.0
  0
LINE
  5
A6A
330
1F
100
AcDbEntity
  8
OBJECT1
100
AcDbLine
 10
20.8507833257672
 20
14.39119811854529
 30
0.0
 11
20.8507833257672
 21
13.9901469271184
 31
0.0
  0
LINE
  5
A6B
330
1F
100
AcDbEntity
  8
OBJECT1
100
AcDbLine
 10
24.76907867983266
 20
12.1371949280816
 30
0.0
 11
21.19390832576718
 21
12.1371949280816
 31
0.0
  0
LINE
  5
A6C
330
1F
100
AcDbEntity
  8
OBJECT1
100
AcDbLine
 10
24.76893670786905
 20
12.60225086000336
 30
0.0
 11
21.19390832576718
 21
12.60228147819249
 31
0.0
  0
LINE
  5
A6D
330
1F
100
AcDbEntity
  8
OBJECT1
100
AcDbLine
 10
24.84388394018538
 20
12.56967783673898
 30
0.0
 11
24.88880154205367
 21
12.48764178136236
 31
0.0
  0
LINE
  5
A6E
330
1F
100
AcDbEntity
  8
OBJECT2
100
AcDbLine
 10
24.725951321151
 20
12.28530054597305
 30
0.0
 11
24.725951321151
 21
12.22514074099805
 31
0.0
  0
LINE
  5
A6F
330
1F
100
AcDbEntity
  8
OBJECT1
100
AcDbLine
 10
24.88880154205367
 20
12.25179004226717
 30
0.0
 11
24.88880154205367
 21
12.32905304677633
 31
0.0
  0
LINE
  5
A70
330
1F
100
AcDbEntity
  8
OBJECT1
100
AcDbLine
 10
24.7690502854399
 20
12.13722332247432
 30
0.0
 11
24.84388394018538
 21
12.16975398689055
 31
0.0
  0
LINE
  5
A71
330
1F
100
AcDbEntity
  8
OBJECT2
100
AcDbLine
 10
24.725951321151
 20
12.22514074099805
 30
0.0
 11
24.7690502854399
 21
12.13722332247432
 31
0.0
  0
LINE
  5
A72
330
1F
100
AcDbEntity
  8
OBJECT1
100
AcDbLine
 10
24.84388394018538
 20
12.16975398689055
 30
0.0
 11
24.88880154205367
 21
12.25179004226717
 31
0.0
  0
LINE
  5
A73
330
1F
100
AcDbEntity
  8
OBJECT2
100
AcDbLine
 10
24.85510624205426
 20
12.40560572598572
 30
0.0
 11
24.78211915379907
 21
12.36186718963787
 31
0.0
  0
LINE
  5
A74
330
1F
100
AcDbEntity
  8
OBJECT2
100
AcDbLine
 10
24.78211915379907
 20
12.36186718963787
 30
0.0
 11
24.725951321151
 21
12.28530054597305
 31
0.0
  0
LINE
  5
A75
330
1F
100
AcDbEntity
  8
OBJECT1
100
AcDbLine
 10
24.88880154205367
 20
12.32905304677633
 30
0.0
 11
24.85510624205426
 21
12.40560572598572
 31
0.0
  0
LINE
  5
A76
330
1F
100
AcDbEntity
  8
OBJECT1
100
AcDbLine
 10
24.88880154205367
 20
12.48764178136236
 30
0.0
 11
24.85510624205426
 21
12.40560572598572
 31
0.0
  0
LINE
  5
A77
330
1F
100
AcDbEntity
  8
OBJECT1
100
AcDbLine
 10
24.7690502854399
 20
12.60220803567336
 30
0.0
 11
24.84388394018538
 21
12.56967783673898
 31
0.0
  0
LINE
  5
A78
330
1F
100
AcDbEntity
  8
OBJECT2
100
AcDbLine
 10
18.28933734765886
 20
12.5393138042576
 30
0.0
 11
18.27052997420731
 21
12.60170529510817
 31
0.0
  0
LINE
  5
A79
330
1F
100
AcDbEntity
  8
OBJECT1
100
AcDbLine
 10
18.38308734765886
 20
12.66748602156633
 30
0.0
 11
18.38308734765886
 21
12.60170527708531
 31
0.0
  0
LINE
  5
A7A
330
1F
100
AcDbEntity
  8
OBJECT1
100
AcDbLine
 10
18.37371234765891
 20
12.68623602156634
 30
0.0
 11
18.38308734765886
 21
12.66748602156633
 31
0.0
  0
LINE
  5
A7B
330
1F
100
AcDbEntity
  8
OBJECT2
100
AcDbLine
 10
18.36434481886175
 20
12.5393138042576
 30
0.0
 11
18.3831521923133
 21
12.60170529510817
 31
0.0
  0
LINE
  5
A7C
330
1F
100
AcDbEntity
  8
OBJECT1
100
AcDbLine
 10
18.28464984765893
 20
12.68623602156634
 30
0.0
 11
18.37371234765891
 21
12.68623602156634
 31
0.0
  0
ARC
  5
A7D
330
1F
100
AcDbEntity
  8
OBJECT1
100
AcDbCircle
 10
18.28464984765893
 20
12.70498602156632
 30
0.0
 40
0.01875
100
AcDbArc
 50
180.0
 51
270.0
  0
LINE
  5
A7E
330
1F
100
AcDbEntity
  8
OBJECT1
100
AcDbLine
 10
18.48071737468987
 20
12.86516084316582
 30
0.0
 11
18.48063671343223
 21
12.98939012472464
 31
0.0
  0
LINE
  5
A7F
330
1F
100
AcDbEntity
  8
OBJECT2
100
AcDbLine
 10
18.29128040473674
 20
12.98174556875206
 30
0.0
 11
18.29128040473674
 21
12.86516084365985
 31
0.0
  0
LINE
  5
A80
330
1F
100
AcDbEntity
  8
OBJECT2
100
AcDbLine
 10
18.19558734765886
 20
13.29641084514198
 30
0.0
 11
18.00808734765886
 21
13.29641084514198
 31
0.0
  0
LINE
  5
A81
330
1F
100
AcDbEntity
  8
OBJECT2
100
AcDbLine
 10
18.16371234765893
 20
13.465160845142
 30
0.0
 11
18.03996234765887
 21
13.465160845142
 31
0.0
  0
LINE
  5
A82
330
1F
100
AcDbEntity
  8
OBJECT2
100
AcDbLine
 10
18.19558734765894
 20
13.37976254699033
 30
0.0
 11
18.00808734765894
 21
13.37976254699033
 31
0.0
  0
LINE
  5
A83
330
1F
100
AcDbEntity
  8
OBJECT2
100
AcDbLine
 10
17.99871234765891
 20
13.23138799648971
 30
0.0
 11
18.20496234765889
 21
13.23138799648971
 31
0.0
  0
LINE
  5
A84
330
1F
100
AcDbEntity
  8
OBJECT2
100
AcDbLine
 10
17.82058734765886
 20
12.80519771555456
 30
0.0
 11
18.38308734765886
 21
12.80519771555456
 31
0.0
  0
LINE
  5
A85
330
1F
100
AcDbEntity
  8
OBJECT2
100
AcDbLine
 10
17.82058734765886
 20
12.855785845142
 30
0.0
 11
18.38308734765886
 21
12.855785845142
 31
0.0
  0
LINE
  5
A86
330
1F
100
AcDbEntity
  8
OBJECT2
100
AcDbLine
 10
18.26589984765886
 20
12.78138432795107
 30
0.0
 11
17.93777484765894
 21
12.78138432795107
 31
0.0
  0
LINE
  5
A87
330
1F
100
AcDbEntity
  8
OBJECT2
100
AcDbLine
 10
18.12225385619888
 20
13.3380025529225
 30
0.0
 11
18.08142083911892
 21
13.3380025529225
 31
0.0
  0
LINE
  5
A88
330
1F
100
AcDbEntity
  8
OBJECT2
100
AcDbLine
 10
18.07399685667158
 20
13.32965070259154
 30
0.0
 11
18.12967783864622
 21
13.32965070259154
 31
0.0
  0
LINE
  5
A89
330
1F
100
AcDbEntity
  8
OBJECT2
100
AcDbLine
 10
18.12225385619888
 20
13.32129855529536
 30
0.0
 11
18.08142083911892
 21
13.32129855529536
 31
0.0
  0
LINE
  5
A8A
330
1F
100
AcDbEntity
  8
OBJECT2
100
AcDbLine
 10
18.07399685667158
 20
13.31294670496442
 30
0.0
 11
18.12967783864622
 21
13.31294670496442
 31
0.0
  0
LINE
  5
A8B
330
1F
100
AcDbEntity
  8
OBJECT2
100
AcDbLine
 10
18.12225385619888
 20
13.30459455766823
 30
0.0
 11
18.08142083911892
 21
13.30459455766823
 31
0.0
  0
LINE
  5
A8C
330
1F
100
AcDbEntity
  8
OBJECT2
100
AcDbLine
 10
18.06714984765887
 20
13.23138799648971
 30
0.0
 11
18.13652484765885
 21
13.23138799648971
 31
0.0
  0
LINE
  5
A8D
330
1F
100
AcDbEntity
  8
OBJECT2
100
AcDbLine
 10
18.12225385619888
 20
13.17292385631212
 30
0.0
 11
18.08142083911892
 21
13.17292385631212
 31
0.0
  0
LINE
  5
A8E
330
1F
100
AcDbEntity
  8
OBJECT2
100
AcDbLine
 10
18.07399685667158
 20
13.18127600360831
 30
0.0
 11
18.12967783864622
 21
13.18127600360831
 31
0.0
  0
LINE
  5
A8F
330
1F
100
AcDbEntity
  8
OBJECT2
100
AcDbLine
 10
18.12225385619888
 20
13.18962785393925
 30
0.0
 11
18.08142083911892
 21
13.18962785393925
 31
0.0
  0
LINE
  5
A90
330
1F
100
AcDbEntity
  8
OBJECT2
100
AcDbLine
 10
18.07399685667158
 20
13.19798000123544
 30
0.0
 11
18.12967783864622
 21
13.19798000123544
 31
0.0
  0
LINE
  5
A91
330
1F
100
AcDbEntity
  8
OBJECT2
100
AcDbLine
 10
18.12225385619888
 20
13.2063318515664
 30
0.0
 11
18.08142083911892
 21
13.2063318515664
 31
0.0
  0
LINE
  5
A92
330
1F
100
AcDbEntity
  8
OBJECT2
100
AcDbLine
 10
18.12225385619888
 20
13.22303584919352
 30
0.0
 11
18.08142083911892
 21
13.22303584919352
 31
0.0
  0
LINE
  5
A93
330
1F
100
AcDbEntity
  8
OBJECT2
100
AcDbLine
 10
18.07399685667158
 20
13.21468399886256
 30
0.0
 11
18.12967783864622
 21
13.21468399886256
 31
0.0
  0
LINE
  5
A94
330
1F
100
AcDbEntity
  8
OBJECT2
100
AcDbLine
 10
18.06007661117795
 20
13.5022814997917
 30
0.0
 11
18.14359808413985
 21
13.5022814997917
 31
0.0
  0
LINE
  5
A95
330
1F
100
AcDbEntity
  8
OBJECT2
100
AcDbLine
 10
18.07772674005085
 20
13.49582102105646
 30
0.0
 11
18.09325475533865
 21
13.5022814997917
 31
0.0
  0
LINE
  5
A96
330
1F
100
AcDbEntity
  8
OBJECT2
100
AcDbLine
 10
18.12225385619888
 20
13.37141099362461
 30
0.0
 11
18.08142083911892
 21
13.37141099362461
 31
0.0
  0
LINE
  5
A97
330
1F
100
AcDbEntity
  8
OBJECT2
100
AcDbLine
 10
18.07399685667158
 20
13.36305869784581
 30
0.0
 11
18.12967783864622
 21
13.36305869784581
 31
0.0
  0
LINE
  5
A98
330
1F
100
AcDbEntity
  8
OBJECT2
100
AcDbLine
 10
18.12225385619888
 20
13.35470655054963
 30
0.0
 11
18.08142083911892
 21
13.35470655054963
 31
0.0
  0
LINE
  5
A99
330
1F
100
AcDbEntity
  8
OBJECT2
100
AcDbLine
 10
18.07399685667158
 20
13.34635470021869
 30
0.0
 11
18.12967783864622
 21
13.34635470021869
 31
0.0
  0
LINE
  5
A9A
330
1F
100
AcDbEntity
  8
OBJECT1
100
AcDbLine
 10
18.42996234765886
 20
13.66203584514199
 30
0.0
 11
18.42996234765886
 21
13.34328584514199
 31
0.0
  0
LINE
  5
A9B
330
1F
100
AcDbEntity
  8
OBJECT1
100
AcDbLine
 10
18.35496234765892
 20
13.66203584514199
 30
0.0
 11
18.35496234765892
 21
13.34328584514199
 31
0.0
  0
LINE
  5
A9C
330
1F
100
AcDbEntity
  8
OBJECT1
100
AcDbLine
 10
18.16371234765893
 20
13.668035845142
 30
0.0
 11
18.16371234765893
 21
13.465160845142
 31
0.0
  0
LINE
  5
A9D
330
1F
100
AcDbEntity
  8
OBJECT2
100
AcDbLine
 10
18.38777484765888
 20
13.66203584514199
 30
0.0
 11
18.38777484765888
 21
13.34328584514199
 31
0.0
  0
LINE
  5
A9E
330
1F
100
AcDbEntity
  8
OBJECT1
100
AcDbLine
 10
17.84871234765887
 20
13.66203584514199
 30
0.0
 11
17.84871234765887
 21
13.34328584514199
 31
0.0
  0
LINE
  5
A9F
330
1F
100
AcDbEntity
  8
OBJECT1
100
AcDbLine
 10
18.03996234765887
 20
13.668035845142
 30
0.0
 11
18.03996234765887
 21
13.465160845142
 31
0.0
  0
LINE
  5
AA0
330
1F
100
AcDbEntity
  8
OBJECT2
100
AcDbLine
 10
17.81589984765893
 20
13.66203584514199
 30
0.0
 11
17.81589984765893
 21
13.34328584514199
 31
0.0
  0
LINE
  5
AA1
330
1F
100
AcDbEntity
  8
OBJECT1
100
AcDbLine
 10
17.77371234765886
 20
13.66203584514199
 30
0.0
 11
17.77371234765886
 21
13.34328584514199
 31
0.0
  0
LINE
  5
AA2
330
1F
100
AcDbEntity
  8
OBJECT1
100
AcDbLine
 10
18.03996234765887
 20
14.39121203656889
 30
0.0
 11
18.03996234765887
 21
13.99016084514199
 31
0.0
  0
LINE
  5
AA3
330
1F
100
AcDbEntity
  8
OBJECT1
100
AcDbLine
 10
18.16371234765893
 20
14.39121203656889
 30
0.0
 11
18.16371234765893
 21
13.99016084514199
 31
0.0
  0
LINE
  5
AA4
330
1F
100
AcDbEntity
  8
OBJECT2
100
AcDbLine
 10
18.16371234765893
 20
14.34059822044755
 30
0.0
 11
18.03996234765887
 21
14.34059822044755
 31
0.0
  0
LINE
  5
AA5
330
1F
100
AcDbEntity
  8
OBJECT1
100
AcDbLine
 10
18.16371234765893
 20
14.39121203656889
 30
0.0
 11
18.03996234765887
 21
14.39121203656889
 31
0.0
  0
LINE
  5
AA6
330
1F
100
AcDbEntity
  8
OBJECT2
100
AcDbLine
 10
18.14700399020148
 20
14.36614633710469
 30
0.0
 11
18.05667070511632
 21
14.36614633710469
 31
0.0
  0
LINE
  5
AA7
330
1F
100
AcDbEntity
  8
OBJECT2
100
AcDbLine
 10
18.14700399020148
 20
14.31505010379038
 30
0.0
 11
18.05667070511632
 21
14.31505010379038
 31
0.0
  0
LINE
  5
AA8
330
1F
100
AcDbEntity
  8
OBJECT2
100
AcDbLine
 10
17.91433734765894
 20
12.5393138042576
 30
0.0
 11
17.93307987645605
 21
12.42602115471908
 31
0.0
  0
LINE
  5
AA9
330
1F
100
AcDbEntity
  8
OBJECT2
100
AcDbLine
 10
17.83932987645605
 20
12.5393138042576
 30
0.0
 11
17.82058734765894
 21
12.42602115471908
 31
0.0
  0
LINE
  5
AAA
330
1F
100
AcDbEntity
  8
OBJECT2
100
AcDbLine
 10
18.28933734765886
 20
12.5393138042576
 30
0.0
 11
18.27059481886175
 21
12.42602115471908
 31
0.0
  0
LINE
  5
AAB
330
1F
100
AcDbEntity
  8
OBJECT2
100
AcDbLine
 10
18.36434481886175
 20
12.5393138042576
 30
0.0
 11
18.38308734765886
 21
12.42602115471908
 31
0.0
  0
LINE
  5
AAC
330
1F
100
AcDbEntity
  8
OBJECT2
100
AcDbLine
 10
18.3831521923133
 20
12.60170529510817
 30
0.0
 11
18.38302252080956
 21
12.13670524108701
 31
0.0
  0
LINE
  5
AAD
330
1F
100
AcDbEntity
  8
OBJECT2
100
AcDbLine
 10
18.23617785500292
 20
12.78138432795107
 30
0.0
 11
18.23617785500292
 21
12.383990625782
 31
0.0
  0
LINE
  5
AAE
330
1F
100
AcDbEntity
  8
OBJECT2
100
AcDbLine
 10
17.8205639212116
 20
12.13670569652942
 30
0.0
 11
17.8205639212116
 21
12.60173323405846
 31
0.0
  0
LINE
  5
AAF
330
1F
100
AcDbEntity
  8
OBJECT2
100
AcDbLine
 10
17.75078726126088
 20
12.13670569652942
 30
0.0
 11
17.75078726126088
 21
12.60173323405846
 31
0.0
  0
LINE
  5
AB0
330
1F
100
AcDbEntity
  8
OBJECT2
100
AcDbLine
 10
17.78567559123624
 20
12.18139614325606
 30
0.0
 11
17.78567559123624
 21
12.55707118172455
 31
0.0
  0
LINE
  5
AB1
330
1F
100
AcDbEntity
  8
OBJECT2
100
AcDbLine
 10
17.71589893128544
 20
12.18136774886334
 30
0.0
 11
17.71592732567819
 21
12.55704278733184
 31
0.0
  0
LINE
  5
AB2
330
1F
100
AcDbEntity
  8
OBJECT2
100
AcDbLine
 10
17.96749684031488
 20
12.78138432795107
 30
0.0
 11
17.96749684031488
 21
12.383990625782
 31
0.0
  0
LINE
  5
AB3
330
1F
100
AcDbEntity
  8
OBJECT2
100
AcDbLine
 10
17.91433734765894
 20
12.19909673193758
 30
0.0
 11
17.93307987645605
 21
12.3123893814761
 31
0.0
  0
LINE
  5
AB4
330
1F
100
AcDbEntity
  8
OBJECT2
100
AcDbLine
 10
17.83932987645605
 20
12.19909673193758
 30
0.0
 11
17.82058734765894
 21
12.3123893814761
 31
0.0
  0
LINE
  5
AB5
330
1F
100
AcDbEntity
  8
OBJECT2
100
AcDbLine
 10
17.83932987645605
 20
12.19909673193758
 30
0.0
 11
17.8205225030045
 21
12.13670524108701
 31
0.0
  0
LINE
  5
AB6
330
1F
100
AcDbEntity
  8
OBJECT2
100
AcDbLine
 10
17.91433734765894
 20
12.19909673193758
 30
0.0
 11
17.93314472111049
 21
12.13670524108701
 31
0.0
  0
LINE
  5
AB7
330
1F
100
AcDbEntity
  8
OBJECT2
100
AcDbLine
 10
17.91433734765894
 20
12.19909673193758
 30
0.0
 11
17.83932987645605
 21
12.19909673193758
 31
0.0
  0
ARC
  5
AB8
330
1F
100
AcDbEntity
  8
OBJECT1
100
AcDbCircle
 10
17.94165702343395
 20
12.06965535409787
 30
0.0
 40
0.01125
100
AcDbArc
 50
69.66247610455789
 51
142.9091302274679
  0
ARC
  5
AB9
330
1F
100
AcDbEntity
  8
OBJECT1
100
AcDbCircle
 10
17.90873943893157
 20
12.06342451462885
 30
0.0
 40
0.01125
100
AcDbArc
 50
270.0
 51
322.9091302274679
  0
LINE
  5
ABA
330
1F
100
AcDbEntity
  8
OBJECT1
100
AcDbLine
 10
17.82996234765889
 20
12.05217451462885
 30
0.0
 11
17.90873943893157
 21
12.05217451462885
 31
0.0
  0
LINE
  5
ABB
330
1F
100
AcDbEntity
  8
OBJECT1
100
AcDbLine
 10
17.91771333939752
 20
12.05663985469432
 30
0.0
 11
17.932683122968
 21
12.07644001403241
 31
0.0
  0
LINE
  5
ABC
330
1F
100
AcDbEntity
  8
OBJECT1
100
AcDbLine
 10
17.82996234765889
 20
12.05217451462885
 30
0.0
 11
17.82058734765894
 21
12.07092451462885
 31
0.0
  0
LINE
  5
ABD
330
1F
100
AcDbEntity
  8
OBJECT1
100
AcDbLine
 10
17.82058734765894
 20
12.07092451462885
 30
0.0
 11
17.82058734765894
 21
12.13764668595235
 31
0.0
  0
LINE
  5
ABE
330
1F
100
AcDbEntity
  8
OBJECT2
100
AcDbLine
 10
18.28933734765886
 20
12.19909673193758
 30
0.0
 11
18.27059481886175
 21
12.3123893814761
 31
0.0
  0
LINE
  5
ABF
330
1F
100
AcDbEntity
  8
OBJECT2
100
AcDbLine
 10
18.28933734765886
 20
12.19909673193758
 30
0.0
 11
18.36434481886175
 21
12.19909673193758
 31
0.0
  0
LINE
  5
AC0
330
1F
100
AcDbEntity
  8
OBJECT2
100
AcDbLine
 10
18.28933734765886
 20
12.19909673193758
 30
0.0
 11
18.27052997420731
 21
12.13670524108701
 31
0.0
  0
LINE
  5
AC1
330
1F
100
AcDbEntity
  8
OBJECT2
100
AcDbLine
 10
18.36434481886175
 20
12.19909673193758
 30
0.0
 11
18.38308734765886
 21
12.3123893814761
 31
0.0
  0
LINE
  5
AC2
330
1F
100
AcDbEntity
  8
OBJECT2
100
AcDbLine
 10
18.36434481886175
 20
12.19909673193758
 30
0.0
 11
18.3831521923133
 21
12.13670524108701
 31
0.0
  0
ARC
  5
AC3
330
1F
100
AcDbEntity
  8
OBJECT1
100
AcDbCircle
 10
18.26201767188385
 20
12.06965535409787
 30
0.0
 40
0.01125
100
AcDbArc
 50
37.09086977253202
 51
110.3375238954421
  0
ARC
  5
AC4
330
1F
100
AcDbEntity
  8
OBJECT1
100
AcDbCircle
 10
18.29493525638622
 20
12.06342451462885
 30
0.0
 40
0.01125
100
AcDbArc
 50
217.090869772532
 51
270.0
  0
LINE
  5
AC5
330
1F
100
AcDbEntity
  8
OBJECT1
100
AcDbLine
 10
18.28596135592028
 20
12.05663985469432
 30
0.0
 11
18.2709915723498
 21
12.07644001403241
 31
0.0
  0
LINE
  5
AC6
330
1F
100
AcDbEntity
  8
OBJECT1
100
AcDbLine
 10
18.37371234765891
 20
12.05217451462885
 30
0.0
 11
18.38308734765886
 21
12.07092451462885
 31
0.0
  0
LINE
  5
AC7
330
1F
100
AcDbEntity
  8
OBJECT1
100
AcDbLine
 10
18.29493525638622
 20
12.05217451462885
 30
0.0
 11
18.37371234765891
 21
12.05217451462885
 31
0.0
  0
LINE
  5
AC8
330
1F
100
AcDbEntity
  8
OBJECT1
100
AcDbLine
 10
18.38308734765886
 20
12.07092451462885
 30
0.0
 11
18.38308734765886
 21
12.13670525910987
 31
0.0
  0
ARC
  5
AC9
330
1F
100
AcDbEntity
  8
OBJECT1
100
AcDbCircle
 10
18.10183734765886
 20
12.50180901878578
 30
0.0
 40
0.4496345041569306
100
AcDbArc
 50
249.6624761045578
 51
290.3375238954421
  0
ARC
  5
ACA
330
1F
100
AcDbEntity
  8
OBJECT1
100
AcDbCircle
 10
17.73420123350317
 20
13.978910845142
 30
0.0
 40
0.01125
100
AcDbArc
 50
90.0
 51
180.0
  0
ARC
  5
ACB
330
1F
100
AcDbEntity
  8
OBJECT1
100
AcDbCircle
 10
17.73420123350317
 20
13.89828584514199
 30
0.0
 40
0.01125
100
AcDbArc
 50
180.0
 51
270.0
  0
LINE
  5
ACC
330
1F
100
AcDbEntity
  8
OBJECT1
100
AcDbLine
 10
17.72295123350318
 20
13.978910845142
 30
0.0
 11
17.72295123350318
 21
13.89828584514199
 31
0.0
  0
LINE
  5
ACD
330
1F
100
AcDbEntity
  8
OBJECT2
100
AcDbLine
 10
17.91239429058106
 20
13.99016084514199
 30
0.0
 11
17.91239429058106
 21
13.887035845142
 31
0.0
  0
LINE
  5
ACE
330
1F
100
AcDbEntity
  8
OBJECT1
100
AcDbLine
 10
17.73420123350317
 20
13.99016084514199
 30
0.0
 11
18.03996234765887
 21
13.99016084514199
 31
0.0
  0
LINE
  5
ACF
330
1F
100
AcDbEntity
  8
OBJECT1
100
AcDbLine
 10
17.73420123350317
 20
13.887035845142
 30
0.0
 11
17.95183734765891
 21
13.887035845142
 31
0.0
  0
ARC
  5
AD0
330
1F
100
AcDbEntity
  8
OBJECT1
100
AcDbCircle
 10
17.89558734765887
 20
13.66203584514199
 30
0.0
 40
0.1218749999999997
100
AcDbArc
 50
146.742835847962
 51
180.0
  0
ARC
  5
AD1
330
1F
100
AcDbEntity
  8
OBJECT1
100
AcDbCircle
 10
17.89558734765887
 20
13.66203584514199
 30
0.0
 40
0.046875
100
AcDbArc
 50
90.0
 51
180.0
  0
LINE
  5
AD2
330
1F
100
AcDbEntity
  8
OBJECT1
100
AcDbLine
 10
17.96121234765886
 20
13.668035845142
 30
0.0
 11
17.96121234765886
 21
13.70891084514199
 31
0.0
  0
LINE
  5
AD3
330
1F
100
AcDbEntity
  8
OBJECT1
100
AcDbLine
 10
17.96121234765886
 20
13.668035845142
 30
0.0
 11
18.03996234765887
 21
13.668035845142
 31
0.0
  0
LINE
  5
AD4
330
1F
100
AcDbEntity
  8
OBJECT2
100
AcDbLine
 10
17.89558734765887
 20
13.74172334514198
 30
0.0
 11
17.92839984765891
 21
13.74172334514198
 31
0.0
  0
ARC
  5
AD5
330
1F
100
AcDbEntity
  8
OBJECT2
100
AcDbCircle
 10
17.92839984765891
 20
13.76516084514198
 30
0.0
 40
0.0234375
100
AcDbArc
 50
270.0
 51
0.0
  0
LINE
  5
AD6
330
1F
100
AcDbEntity
  8
OBJECT1
100
AcDbLine
 10
17.89558734765887
 20
13.70891084514199
 30
0.0
 11
17.96121234765886
 21
13.70891084514199
 31
0.0
  0
ARC
  5
AD7
330
1F
100
AcDbEntity
  8
OBJECT2
100
AcDbCircle
 10
17.89558734765887
 20
13.66203584514199
 30
0.0
 40
0.0796875
100
AcDbArc
 50
90.0
 51
180.0
  0
LINE
  5
AD8
330
1F
100
AcDbEntity
  8
OBJECT1
100
AcDbLine
 10
17.95183734765891
 20
13.887035845142
 30
0.0
 11
17.79367332865837
 21
13.72887182614149
 31
0.0
  0
LINE
  5
AD9
330
1F
100
AcDbEntity
  8
OBJECT2
100
AcDbLine
 10
17.95183734765891
 20
13.887035845142
 30
0.0
 11
17.95183734765891
 21
13.76516084514198
 31
0.0
  0
LINE
  5
ADA
330
1F
100
AcDbEntity
  8
OBJECT2
100
AcDbLine
 10
18.29128040473674
 20
13.99016084514199
 30
0.0
 11
18.29128040473674
 21
13.887035845142
 31
0.0
  0
ARC
  5
ADB
330
1F
100
AcDbEntity
  8
OBJECT1
100
AcDbCircle
 10
18.46947346181463
 20
13.978910845142
 30
0.0
 40
0.01125
100
AcDbArc
 50
0.0
 51
90.0
  0
ARC
  5
ADC
330
1F
100
AcDbEntity
  8
OBJECT1
100
AcDbCircle
 10
18.46947346181463
 20
13.89828584514199
 30
0.0
 40
0.01125
100
AcDbArc
 50
270.0
 51
0.0
  0
LINE
  5
ADD
330
1F
100
AcDbEntity
  8
OBJECT1
100
AcDbLine
 10
18.48072346181462
 20
13.978910845142
 30
0.0
 11
18.48072346181462
 21
13.89828584514199
 31
0.0
  0
LINE
  5
ADE
330
1F
100
AcDbEntity
  8
OBJECT1
100
AcDbLine
 10
18.25183734765889
 20
13.887035845142
 30
0.0
 11
18.46947346181463
 21
13.887035845142
 31
0.0
  0
LINE
  5
ADF
330
1F
100
AcDbEntity
  8
OBJECT1
100
AcDbLine
 10
18.16371234765893
 20
13.99016084514199
 30
0.0
 11
18.46947346181463
 21
13.99016084514199
 31
0.0
  0
ARC
  5
AE0
330
1F
100
AcDbEntity
  8
OBJECT1
100
AcDbCircle
 10
18.30808734765892
 20
13.66203584514199
 30
0.0
 40
0.046875
100
AcDbArc
 50
0.0
 51
90.0
  0
LINE
  5
AE1
330
1F
100
AcDbEntity
  8
OBJECT1
100
AcDbLine
 10
18.24246234765886
 20
13.70891084514199
 30
0.0
 11
18.24246234765886
 21
13.668035845142
 31
0.0
  0
LINE
  5
AE2
330
1F
100
AcDbEntity
  8
OBJECT1
100
AcDbLine
 10
18.16371234765893
 20
13.668035845142
 30
0.0
 11
18.24246234765886
 21
13.668035845142
 31
0.0
  0
LINE
  5
AE3
330
1F
100
AcDbEntity
  8
OBJECT2
100
AcDbLine
 10
18.30808734765892
 20
13.74172334514198
 30
0.0
 11
18.27527484765889
 21
13.74172334514198
 31
0.0
  0
ARC
  5
AE4
330
1F
100
AcDbEntity
  8
OBJECT2
100
AcDbCircle
 10
18.27527484765889
 20
13.76516084514198
 30
0.0
 40
0.0234375
100
AcDbArc
 50
180.0
 51
270.0
  0
LINE
  5
AE5
330
1F
100
AcDbEntity
  8
OBJECT1
100
AcDbLine
 10
18.24246234765886
 20
13.70891084514199
 30
0.0
 11
18.30808734765892
 21
13.70891084514199
 31
0.0
  0
LINE
  5
AE6
330
1F
100
AcDbEntity
  8
OBJECT2
100
AcDbLine
 10
18.10183734765886
 20
13.70891084514199
 30
0.0
 11
18.10183734765886
 21
13.668035845142
 31
0.0
  0
ARC
  5
AE7
330
1F
100
AcDbEntity
  8
OBJECT1
100
AcDbCircle
 10
18.30808734765892
 20
13.66203584514199
 30
0.0
 40
0.1218749999999997
100
AcDbArc
 50
0.0
 51
33.25716415203795
  0
ARC
  5
AE8
330
1F
100
AcDbEntity
  8
OBJECT2
100
AcDbCircle
 10
18.30808734765892
 20
13.66203584514199
 30
0.0
 40
0.0796875
100
AcDbArc
 50
0.0
 51
90.0
  0
LINE
  5
AE9
330
1F
100
AcDbEntity
  8
OBJECT1
100
AcDbLine
 10
18.25183734765889
 20
13.887035845142
 30
0.0
 11
18.41000136665943
 21
13.72887182614149
 31
0.0
  0
LINE
  5
AEA
330
1F
100
AcDbEntity
  8
OBJECT2
100
AcDbLine
 10
18.25183734765889
 20
13.887035845142
 30
0.0
 11
18.25183734765889
 21
13.76516084514198
 31
0.0
  0
LINE
  5
AEB
330
1F
100
AcDbEntity
  8
OBJECT2
100
AcDbLine
 10
18.16371234765893
 20
14.2906053865388
 30
0.0
 11
18.03996234765887
 21
14.2906053865388
 31
0.0
  0
LINE
  5
AEC
330
1F
100
AcDbEntity
  8
OBJECT2
100
AcDbLine
 10
18.16371234765893
 20
14.24061255263005
 30
0.0
 11
18.03996234765887
 21
14.24061255263005
 31
0.0
  0
LINE
  5
AED
330
1F
100
AcDbEntity
  8
OBJECT2
100
AcDbLine
 10
18.16371234765893
 20
14.14076032908083
 30
0.0
 11
18.03996234765887
 21
14.14076032908083
 31
0.0
  0
LINE
  5
AEE
330
1F
100
AcDbEntity
  8
OBJECT2
100
AcDbLine
 10
18.16371234765893
 20
14.09076749517208
 30
0.0
 11
18.03996234765887
 21
14.09076749517208
 31
0.0
  0
LINE
  5
AEF
330
1F
100
AcDbEntity
  8
OBJECT2
100
AcDbLine
 10
18.16371234765893
 20
14.19068644085543
 30
0.0
 11
18.03996234765887
 21
14.19068644085543
 31
0.0
  0
LINE
  5
AF0
330
1F
100
AcDbEntity
  8
OBJECT2
100
AcDbLine
 10
18.25183734765889
 20
13.887035845142
 30
0.0
 11
17.95183734765891
 21
13.887035845142
 31
0.0
  0
LINE
  5
AF1
330
1F
100
AcDbEntity
  8
OBJECT2
100
AcDbLine
 10
17.96121234765886
 20
13.70891084514199
 30
0.0
 11
18.24246234765886
 21
13.70891084514199
 31
0.0
  0
LINE
  5
AF2
330
1F
100
AcDbEntity
  8
OBJECT2
100
AcDbLine
 10
18.16371234765893
 20
14.04077466126333
 30
0.0
 11
18.03996234765887
 21
14.04077466126333
 31
0.0
  0
LINE
  5
AF3
330
1F
100
AcDbEntity
  8
OBJECT2
100
AcDbLine
 10
18.16371234765893
 20
13.99016084514199
 30
0.0
 11
18.03996234765887
 21
13.99016084514199
 31
0.0
  0
LINE
  5
AF4
330
1F
100
AcDbEntity
  8
OBJECT2
100
AcDbLine
 10
18.03996234765887
 20
13.668035845142
 30
0.0
 11
18.16371234765893
 21
13.668035845142
 31
0.0
  0
LINE
  5
AF5
330
1F
100
AcDbEntity
  8
OBJECT2
100
AcDbLine
 10
18.14700399020148
 20
14.01522654460617
 30
0.0
 11
18.05667070511632
 21
14.01522654460617
 31
0.0
  0
LINE
  5
AF6
330
1F
100
AcDbEntity
  8
OBJECT2
100
AcDbLine
 10
18.14700399020148
 20
14.26616066928722
 30
0.0
 11
18.05667070511632
 21
14.26616066928722
 31
0.0
  0
LINE
  5
AF7
330
1F
100
AcDbEntity
  8
OBJECT2
100
AcDbLine
 10
18.14700399020148
 20
14.21506443597288
 30
0.0
 11
18.05667070511632
 21
14.21506443597288
 31
0.0
  0
LINE
  5
AF8
330
1F
100
AcDbEntity
  8
OBJECT2
100
AcDbLine
 10
18.14700399020148
 20
14.16630844573798
 30
0.0
 11
18.05667070511632
 21
14.16630844573798
 31
0.0
  0
LINE
  5
AF9
330
1F
100
AcDbEntity
  8
OBJECT2
100
AcDbLine
 10
18.14700399020148
 20
14.11521221242366
 30
0.0
 11
18.05667070511632
 21
14.11521221242366
 31
0.0
  0
LINE
  5
AFA
330
1F
100
AcDbEntity
  8
OBJECT2
100
AcDbLine
 10
18.14700399020148
 20
14.0663227779205
 30
0.0
 11
18.05667070511632
 21
14.0663227779205
 31
0.0
  0
ARC
  5
AFB
330
1F
100
AcDbEntity
  8
OBJECT1
100
AcDbCircle
 10
17.89558734765887
 20
13.34328584514199
 30
0.0
 40
0.1218749999999997
100
AcDbArc
 50
180.0
 51
213.2571641520434
  0
LINE
  5
AFC
330
1F
100
AcDbEntity
  8
OBJECT1
100
AcDbLine
 10
18.00808734765894
 20
13.37976254699033
 30
0.0
 11
18.00808734765886
 21
13.29641084514198
 31
0.0
  0
ARC
  5
AFD
330
1F
100
AcDbEntity
  8
OBJECT1
100
AcDbCircle
 10
17.89558734765887
 20
13.34328584514199
 30
0.0
 40
0.046875
100
AcDbArc
 50
180.0
 51
270.0
  0
LINE
  5
AFE
330
1F
100
AcDbEntity
  8
OBJECT2
100
AcDbLine
 10
18.07399685667158
 20
13.29641084514198
 30
0.0
 11
18.07399685667158
 21
13.37976254699033
 31
0.0
  0
LINE
  5
AFF
330
1F
100
AcDbEntity
  8
OBJECT1
100
AcDbLine
 10
17.89558734765887
 20
13.29641084514198
 30
0.0
 11
18.00808734765886
 21
13.29641084514198
 31
0.0
  0
LINE
  5
B00
330
1F
100
AcDbEntity
  8
OBJECT2
100
AcDbLine
 10
17.89558734765887
 20
13.26359834514199
 30
0.0
 11
17.94427593570657
 21
13.26359834514199
 31
0.0
  0
LINE
  5
B01
330
1F
100
AcDbEntity
  8
OBJECT1
100
AcDbLine
 10
17.97527484765891
 20
13.465160845142
 30
0.0
 11
17.97527484765891
 21
13.37976254699033
 31
0.0
  0
LINE
  5
B02
330
1F
100
AcDbEntity
  8
OBJECT1
100
AcDbLine
 10
18.03996234765887
 20
13.465160845142
 30
0.0
 11
17.97527484765891
 21
13.465160845142
 31
0.0
  0
LINE
  5
B03
330
1F
100
AcDbEntity
  8
OBJECT1
100
AcDbLine
 10
18.00808734765894
 20
13.37976254699033
 30
0.0
 11
17.97527484765891
 21
13.37976254699033
 31
0.0
  0
LINE
  5
B04
330
1F
100
AcDbEntity
  8
OBJECT2
100
AcDbLine
 10
18.0536159839601
 20
13.465160845142
 30
0.0
 11
18.0536159839601
 21
13.49582102105646
 31
0.0
  0
LINE
  5
B05
330
1F
100
AcDbEntity
  8
OBJECT2
100
AcDbLine
 10
18.07772674005085
 20
13.49582102105646
 30
0.0
 11
18.06739665579226
 21
13.5022814997917
 31
0.0
  0
LINE
  5
B06
330
1F
100
AcDbEntity
  8
OBJECT2
100
AcDbLine
 10
18.07772674005085
 20
13.49582102105646
 30
0.0
 11
18.07772674005085
 21
13.465160845142
 31
0.0
  0
LINE
  5
B07
330
1F
100
AcDbEntity
  8
OBJECT2
100
AcDbLine
 10
18.0536159839601
 20
13.49582102105646
 30
0.0
 11
18.06007661117795
 21
13.5022814997917
 31
0.0
  0
LINE
  5
B08
330
1F
100
AcDbEntity
  8
OBJECT2
100
AcDbLine
 10
17.91239429058106
 20
12.98174556974015
 30
0.0
 11
17.82058734765886
 21
12.991120568258
 31
0.0
  0
LINE
  5
B09
330
1F
100
AcDbEntity
  8
OBJECT2
100
AcDbLine
 10
17.91239429058106
 20
12.98174556974015
 30
0.0
 11
18.07378449085044
 21
12.991120568258
 31
0.0
  0
LINE
  5
B0A
330
1F
100
AcDbEntity
  8
OBJECT1
100
AcDbLine
 10
17.95704568099225
 20
13.11307751180865
 30
0.0
 11
17.95086213313908
 21
13.08586990125475
 31
0.0
  0
LINE
  5
B0B
330
1F
100
AcDbEntity
  8
OBJECT2
100
AcDbLine
 10
17.98084341779878
 20
13.21778755375741
 30
0.0
 11
17.95704568099225
 21
13.11307751180865
 31
0.0
  0
ARC
  5
B0C
330
1F
100
AcDbEntity
  8
OBJECT1
100
AcDbCircle
 10
17.87315623369318
 20
13.10353033294699
 30
0.0
 40
0.0796875
100
AcDbArc
 50
282.25071092493
 51
347.1957339347115
  0
LINE
  5
B0D
330
1F
100
AcDbEntity
  8
OBJECT2
100
AcDbLine
 10
18.07399685667158
 20
13.18127600360831
 30
0.0
 11
18.07399685667158
 21
13.23138799648971
 31
0.0
  0
LINE
  5
B0E
330
1F
100
AcDbEntity
  8
OBJECT2
100
AcDbLine
 10
18.08142083911892
 20
13.17292385631212
 30
0.0
 11
18.07399685667158
 21
13.18127600360831
 31
0.0
  0
LINE
  5
B0F
330
1F
100
AcDbEntity
  8
OBJECT1
100
AcDbLine
 10
17.89006510818984
 20
13.02565743894976
 30
0.0
 11
17.72295123350318
 21
12.9893712886774
 31
0.0
  0
ARC
  5
B10
330
1F
100
AcDbEntity
  8
OBJECT2
100
AcDbCircle
 10
17.89558734765887
 20
13.34328584514199
 30
0.0
 40
0.0796875
100
AcDbArc
 50
180.0
 51
270.0
  0
LINE
  5
B11
330
1F
100
AcDbEntity
  8
OBJECT1
100
AcDbLine
 10
17.95704568099225
 20
13.11307751180865
 30
0.0
 11
17.79367332865837
 21
13.27644986414249
 31
0.0
  0
ARC
  5
B12
330
1F
100
AcDbEntity
  8
OBJECT2
100
AcDbCircle
 10
17.94427593570657
 20
13.22609834514199
 30
0.0
 40
0.0375
100
AcDbArc
 50
347.1957339347115
 51
90.0
  0
LINE
  5
B13
330
1F
100
AcDbEntity
  8
OBJECT1
100
AcDbLine
 10
17.72295123350318
 20
12.86516084514199
 30
0.0
 11
17.74170123350325
 21
12.855785845142
 31
0.0
  0
LINE
  5
B14
330
1F
100
AcDbEntity
  8
OBJECT1
100
AcDbLine
 10
17.82058734765886
 20
12.80519771555456
 30
0.0
 11
17.82058734765886
 21
12.855785845142
 31
0.0
  0
LINE
  5
B15
330
1F
100
AcDbEntity
  8
OBJECT1
100
AcDbLine
 10
17.93777484765894
 20
12.78138432795107
 30
0.0
 11
17.93777484765894
 21
12.70498602156632
 31
0.0
  0
LINE
  5
B16
330
1F
100
AcDbEntity
  8
OBJECT1
100
AcDbLine
 10
17.93777484765894
 20
12.78138432795107
 30
0.0
 11
17.82058734765886
 21
12.80519771555456
 31
0.0
  0
LINE
  5
B17
330
1F
100
AcDbEntity
  8
OBJECT2
100
AcDbLine
 10
17.91239429058106
 20
12.86516084365985
 30
0.0
 11
17.82058734765886
 21
12.855785845142
 31
0.0
  0
LINE
  5
B18
330
1F
100
AcDbEntity
  8
OBJECT2
100
AcDbLine
 10
17.91239429058106
 20
12.86516084365985
 30
0.0
 11
18.07378449085044
 21
12.855785845142
 31
0.0
  0
LINE
  5
B19
330
1F
100
AcDbEntity
  8
OBJECT1
100
AcDbLine
 10
17.74170123350325
 20
12.855785845142
 30
0.0
 11
17.82058734765886
 21
12.855785845142
 31
0.0
  0
LINE
  5
B1A
330
1F
100
AcDbEntity
  8
OBJECT1
100
AcDbLine
 10
17.82058734765894
 20
12.60263128416815
 30
0.0
 11
17.82058734765894
 21
12.66748602156633
 31
0.0
  0
LINE
  5
B1B
330
1F
100
AcDbEntity
  8
OBJECT2
100
AcDbLine
 10
17.83932987645605
 20
12.5393138042576
 30
0.0
 11
17.8205225030045
 21
12.60170529510817
 31
0.0
  0
LINE
  5
B1C
330
1F
100
AcDbEntity
  8
OBJECT2
100
AcDbLine
 10
17.91433734765894
 20
12.5393138042576
 30
0.0
 11
17.93314472111049
 21
12.60170529510817
 31
0.0
  0
LINE
  5
B1D
330
1F
100
AcDbEntity
  8
OBJECT2
100
AcDbLine
 10
17.91433734765894
 20
12.5393138042576
 30
0.0
 11
17.83932987645605
 21
12.5393138042576
 31
0.0
  0
LINE
  5
B1E
330
1F
100
AcDbEntity
  8
OBJECT1
100
AcDbLine
 10
17.82996234765889
 20
12.68623602156634
 30
0.0
 11
17.91902484765888
 21
12.68623602156634
 31
0.0
  0
LINE
  5
B1F
330
1F
100
AcDbEntity
  8
OBJECT1
100
AcDbLine
 10
17.82996234765889
 20
12.68623602156634
 30
0.0
 11
17.82058734765894
 21
12.66748602156633
 31
0.0
  0
ARC
  5
B20
330
1F
100
AcDbEntity
  8
OBJECT1
100
AcDbCircle
 10
17.91902484765888
 20
12.70498602156632
 30
0.0
 40
0.01875
100
AcDbArc
 50
270.0
 51
0.0
  0
LINE
  5
B21
330
1F
100
AcDbEntity
  8
OBJECT1
100
AcDbLine
 10
17.72295123350318
 20
12.86516084514199
 30
0.0
 11
17.72295123350318
 21
12.9893712886774
 31
0.0
  0
LINE
  5
B22
330
1F
100
AcDbEntity
  8
OBJECT2
100
AcDbLine
 10
17.91239429058106
 20
12.98174556875206
 30
0.0
 11
17.91239429058106
 21
12.86516084464794
 31
0.0
  0
LINE
  5
B23
330
1F
100
AcDbEntity
  8
OBJECT1
100
AcDbLine
 10
18.19558734765894
 20
13.37976254699033
 30
0.0
 11
18.19558734765886
 21
13.29641084514198
 31
0.0
  0
ARC
  5
B24
330
1F
100
AcDbEntity
  8
OBJECT1
100
AcDbCircle
 10
18.30808734765892
 20
13.34328584514199
 30
0.0
 40
0.046875
100
AcDbArc
 50
270.0
 51
0.0
  0
LINE
  5
B25
330
1F
100
AcDbEntity
  8
OBJECT1
100
AcDbLine
 10
18.19558734765886
 20
13.29641084514198
 30
0.0
 11
18.30808734765892
 21
13.29641084514198
 31
0.0
  0
LINE
  5
B26
330
1F
100
AcDbEntity
  8
OBJECT2
100
AcDbLine
 10
18.25939875961123
 20
13.26359834514199
 30
0.0
 11
18.30808734765892
 21
13.26359834514199
 31
0.0
  0
LINE
  5
B27
330
1F
100
AcDbEntity
  8
OBJECT1
100
AcDbLine
 10
18.22839984765889
 20
13.37976254699033
 30
0.0
 11
18.19558734765894
 21
13.37976254699033
 31
0.0
  0
LINE
  5
B28
330
1F
100
AcDbEntity
  8
OBJECT1
100
AcDbLine
 10
18.22839984765889
 20
13.465160845142
 30
0.0
 11
18.16371234765893
 21
13.465160845142
 31
0.0
  0
LINE
  5
B29
330
1F
100
AcDbEntity
  8
OBJECT1
100
AcDbLine
 10
18.22839984765889
 20
13.465160845142
 30
0.0
 11
18.22839984765889
 21
13.37976254699033
 31
0.0
  0
LINE
  5
B2A
330
1F
100
AcDbEntity
  8
OBJECT2
100
AcDbLine
 10
18.12967783864622
 20
13.29641084514198
 30
0.0
 11
18.12967783864622
 21
13.37976254699033
 31
0.0
  0
LINE
  5
B2B
330
1F
100
AcDbEntity
  8
OBJECT2
100
AcDbLine
 10
18.12594795526695
 20
13.49582102105646
 30
0.0
 11
18.11041993997915
 21
13.5022814997917
 31
0.0
  0
LINE
  5
B2C
330
1F
100
AcDbEntity
  8
OBJECT2
100
AcDbLine
 10
18.12594795526695
 20
13.49582102105646
 30
0.0
 11
18.13627803952553
 21
13.5022814997917
 31
0.0
  0
LINE
  5
B2D
330
1F
100
AcDbEntity
  8
OBJECT2
100
AcDbLine
 10
18.15005856287505
 20
13.49582102105646
 30
0.0
 11
18.14359808413985
 21
13.5022814997917
 31
0.0
  0
LINE
  5
B2E
330
1F
100
AcDbEntity
  8
OBJECT2
100
AcDbLine
 10
18.15005856287505
 20
13.465160845142
 30
0.0
 11
18.15005856287505
 21
13.49582102105646
 31
0.0
  0
LINE
  5
B2F
330
1F
100
AcDbEntity
  8
OBJECT2
100
AcDbLine
 10
18.12594795526695
 20
13.49582102105646
 30
0.0
 11
18.12594795526695
 21
13.465160845142
 31
0.0
  0
ARC
  5
B30
330
1F
100
AcDbEntity
  8
OBJECT1
100
AcDbCircle
 10
18.30808734765892
 20
13.34328584514199
 30
0.0
 40
0.1218749999999997
100
AcDbArc
 50
326.7428358479566
 51
0.0
  0
LINE
  5
B31
330
1F
100
AcDbEntity
  8
OBJECT2
100
AcDbLine
 10
18.29128040473674
 20
12.98174556974015
 30
0.0
 11
18.12989020446736
 21
12.991120568258
 31
0.0
  0
LINE
  5
B32
330
1F
100
AcDbEntity
  8
OBJECT1
100
AcDbLine
 10
18.24662901432555
 20
13.11307751180865
 30
0.0
 11
18.25281256217872
 21
13.08586990125475
 31
0.0
  0
LINE
  5
B33
330
1F
100
AcDbEntity
  8
OBJECT2
100
AcDbLine
 10
18.22283127751902
 20
13.21778755375741
 30
0.0
 11
18.24662901432555
 21
13.11307751180865
 31
0.0
  0
ARC
  5
B34
330
1F
100
AcDbEntity
  8
OBJECT1
100
AcDbCircle
 10
18.33051846162462
 20
13.10353033294699
 30
0.0
 40
0.0796875
100
AcDbArc
 50
192.8042660652884
 51
257.7492890750699
  0
LINE
  5
B35
330
1F
100
AcDbEntity
  8
OBJECT2
100
AcDbLine
 10
18.12967783864622
 20
13.18127600360831
 30
0.0
 11
18.12967783864622
 21
13.23138799648971
 31
0.0
  0
LINE
  5
B36
330
1F
100
AcDbEntity
  8
OBJECT2
100
AcDbLine
 10
18.12967783864622
 20
13.18127600360831
 30
0.0
 11
18.12225385619888
 21
13.17292385631212
 31
0.0
  0
LINE
  5
B37
330
1F
100
AcDbEntity
  8
OBJECT2
100
AcDbLine
 10
18.29128040473674
 20
12.98174556974015
 30
0.0
 11
18.38308734765886
 21
12.991120568258
 31
0.0
  0
LINE
  5
B38
330
1F
100
AcDbEntity
  8
OBJECT1
100
AcDbLine
 10
18.31360958712796
 20
13.02565743894976
 30
0.0
 11
18.48063671343223
 21
12.98939012472464
 31
0.0
  0
ARC
  5
B39
330
1F
100
AcDbEntity
  8
OBJECT2
100
AcDbCircle
 10
18.30808734765892
 20
13.34328584514199
 30
0.0
 40
0.0796875
100
AcDbArc
 50
270.0
 51
0.0
  0
LINE
  5
B3A
330
1F
100
AcDbEntity
  8
OBJECT1
100
AcDbLine
 10
18.24662901432555
 20
13.11307751180865
 30
0.0
 11
18.41000136665943
 21
13.27644986414249
 31
0.0
  0
ARC
  5
B3B
330
1F
100
AcDbEntity
  8
OBJECT2
100
AcDbCircle
 10
18.25939875961123
 20
13.22609834514199
 30
0.0
 40
0.0375
100
AcDbArc
 50
90.0
 51
192.8042660652884
  0
LINE
  5
B3C
330
1F
100
AcDbEntity
  8
OBJECT2
100
AcDbLine
 10
18.29128040473674
 20
12.86516084365985
 30
0.0
 11
18.12989020446736
 21
12.855785845142
 31
0.0
  0
LINE
  5
B3D
330
1F
100
AcDbEntity
  8
OBJECT1
100
AcDbLine
 10
18.26589984765886
 20
12.78138432795107
 30
0.0
 11
18.26589984765886
 21
12.70498602156632
 31
0.0
  0
LINE
  5
B3E
330
1F
100
AcDbEntity
  8
OBJECT1
100
AcDbLine
 10
18.38308734765886
 20
12.80519771555456
 30
0.0
 11
18.38308734765886
 21
12.855785845142
 31
0.0
  0
LINE
  5
B3F
330
1F
100
AcDbEntity
  8
OBJECT1
100
AcDbLine
 10
18.48071737468987
 20
12.86516084316582
 30
0.0
 11
18.46197346181455
 21
12.855785845142
 31
0.0
  0
LINE
  5
B40
330
1F
100
AcDbEntity
  8
OBJECT1
100
AcDbLine
 10
18.38308734765886
 20
12.855785845142
 30
0.0
 11
18.46197346181455
 21
12.855785845142
 31
0.0
  0
LINE
  5
B41
330
1F
100
AcDbEntity
  8
OBJECT1
100
AcDbLine
 10
18.38308734765886
 20
12.80519771555456
 30
0.0
 11
18.26589984765886
 21
12.78138432795107
 31
0.0
  0
LINE
  5
B42
330
1F
100
AcDbEntity
  8
OBJECT2
100
AcDbLine
 10
18.29128040473674
 20
12.86516084365985
 30
0.0
 11
18.38308734765886
 21
12.855785845142
 31
0.0
  0
LINE
  5
B43
330
1F
100
AcDbEntity
  8
OBJECT2
100
AcDbLine
 10
18.28933734765886
 20
12.5393138042576
 30
0.0
 11
18.36434481886175
 21
12.5393138042576
 31
0.0
  0
LINE
  5
B44
330
1F
100
AcDbEntity
  8
OBJECT2
100
AcDbLine
 10
19.10285617728584
 20
12.23015005495623
 30
0.0
 11
18.67839095812894
 21
12.65461440083832
 31
0.0
  0
LINE
  5
B45
330
1F
100
AcDbEntity
  8
OBJECT1
100
AcDbLine
 10
19.27087972599327
 20
13.34188744778262
 30
0.0
 11
19.12017455479355
 21
13.19119235992358
 31
0.0
  0
LINE
  5
B46
330
1F
100
AcDbEntity
  8
OBJECT1
100
AcDbLine
 10
19.12017521240281
 20
13.16490136435325
 30
0.0
 11
19.12017521240281
 21
13.16490136435325
 31
0.0
  0
ARC
  5
B47
330
1F
100
AcDbEntity
  8
OBJECT1
100
AcDbCircle
 10
19.10699913579108
 20
13.15173712470666
 30
0.0
 40
0.0186251062449375
100
AcDbArc
 50
315.0263670000073
 51
44.97453300000618
  0
ARC
  5
B48
330
1F
100
AcDbEntity
  8
OBJECT1
100
AcDbCircle
 10
19.13330788680898
 20
13.17804719094301
 30
0.0
 40
0.01858139625375
100
AcDbArc
 50
134.9735640000043
 51
225.0291750000006
  0
LINE
  5
B49
330
1F
100
AcDbEntity
  8
OBJECT2
100
AcDbLine
 10
18.71210811489746
 20
12.24517574979916
 30
0.0
 11
18.59430685712095
 21
12.2451759690022
 31
0.0
  0
LINE
  5
B4A
330
1F
100
AcDbEntity
  8
OBJECT2
100
AcDbLine
 10
18.71210855330346
 20
12.49318121277831
 30
0.0
 11
18.59430641871487
 21
12.49317222545293
 31
0.0
  0
LINE
  5
B4B
330
1F
100
AcDbEntity
  8
OBJECT1
100
AcDbLine
 10
18.59508787022747
 20
11.60617671132288
 30
0.0
 11
18.75163918698328
 21
11.60616750479446
 31
0.0
  0
LINE
  5
B4C
330
1F
100
AcDbEntity
  8
OBJECT1
100
AcDbLine
 10
18.75163984459246
 20
11.3229310687286
 30
0.0
 11
18.59508852783665
 21
11.32294027525704
 31
0.0
  0
LINE
  5
B4D
330
1F
100
AcDbEntity
  8
OBJECT1
100
AcDbLine
 10
18.57571295033932
 20
11.58680179143471
 30
0.0
 11
18.57571338874533
 21
11.3423158527544
 31
0.0
  0
ARC
  5
B4E
330
1F
100
AcDbEntity
  8
OBJECT1
100
AcDbCircle
 10
18.59507691007454
 20
11.3423048926015
 30
0.0
 40
0.0193635260960625
100
AcDbArc
 50
179.9672239999996
 51
270.0346370000094
  0
ARC
  5
B4F
330
1F
100
AcDbEntity
  8
OBJECT1
100
AcDbCircle
 10
18.59509269269463
 20
11.58679653056133
 30
0.0
 40
0.01937995609275
100
AcDbArc
 50
90.01359899999034
 51
179.985168
  0
ARC
  5
B50
330
1F
100
AcDbEntity
  8
OBJECT2
100
AcDbCircle
 10
18.59429786979564
 20
12.47458139490311
 30
0.0
 40
0.018590696251875
100
AcDbArc
 50
89.9729419999865
 51
180.0837399999982
  0
LINE
  5
B51
330
1F
100
AcDbEntity
  8
OBJECT2
100
AcDbLine
 10
18.57570703924571
 20
12.26377491006516
 30
0.0
 11
18.57570703924571
 21
12.47455443292701
 31
0.0
  0
ARC
  5
B52
330
1F
100
AcDbEntity
  8
OBJECT2
100
AcDbCircle
 10
18.59432877742674
 20
12.26379814558932
 30
0.0
 40
0.018621696245625
100
AcDbArc
 50
180.0713809999991
 51
269.9324649999982
  0
LINE
  5
B53
330
1F
100
AcDbEntity
  8
OBJECT2
100
AcDbLine
 10
18.76913825336064
 20
11.42730097281024
 30
0.0
 11
18.75859962794229
 21
11.4679523991145
 31
0.0
  0
LINE
  5
B54
330
1F
100
AcDbEntity
  8
OBJECT2
100
AcDbLine
 10
19.05001686246462
 20
11.62159938504997
 30
0.0
 11
19.05001598565243
 21
11.33299006283014
 31
0.0
  0
LINE
  5
B55
330
1F
100
AcDbEntity
  8
OBJECT2
100
AcDbLine
 10
18.75859962794229
 20
11.55887651234364
 30
0.0
 11
18.75859875113019
 21
11.39571271614095
 31
0.0
  0
LINE
  5
B56
330
1F
100
AcDbEntity
  8
OBJECT2
100
AcDbLine
 10
18.76913825336064
 20
11.38020651102295
 30
0.0
 11
18.75859875113019
 21
11.39571271614095
 31
0.0
  0
LINE
  5
B57
330
1F
100
AcDbEntity
  8
OBJECT1
100
AcDbLine
 10
18.77099547461154
 20
11.14961597891116
 30
0.0
 11
18.77099591301763
 21
11.30355614884043
 31
0.0
  0
ARC
  5
B58
330
1F
100
AcDbEntity
  8
OBJECT1
100
AcDbCircle
 10
18.75164883191778
 20
11.30358354922268
 30
0.0
 40
0.0193474060993125
100
AcDbArc
 50
359.9189000000028
 51
90.026314000009
  0
LINE
  5
B59
330
1F
100
AcDbEntity
  8
OBJECT2
100
AcDbLine
 10
18.8206027473116
 20
11.38018809796608
 30
0.0
 11
18.76913825336064
 21
11.38020651102295
 31
0.0
  0
LINE
  5
B5A
330
1F
100
AcDbEntity
  8
OBJECT2
100
AcDbLine
 10
18.77100036325834
 20
11.380205844794
 30
0.0
 11
18.77099591301763
 21
11.30355614884043
 31
0.0
  0
LINE
  5
B5B
330
1F
100
AcDbEntity
  8
OBJECT2
100
AcDbLine
 10
18.8206027473116
 20
11.42728255975336
 30
0.0
 11
18.76913825336064
 21
11.42730097281024
 31
0.0
  0
LINE
  5
B5C
330
1F
100
AcDbEntity
  8
OBJECT2
100
AcDbLine
 10
18.76913825336064
 20
11.42730097281024
 30
0.0
 11
18.75859962794229
 21
11.40865446468371
 31
0.0
  0
LINE
  5
B5D
330
1F
100
AcDbEntity
  8
OBJECT2
100
AcDbLine
 10
19.00661224575228
 20
11.38190018354663
 30
0.0
 11
19.04999713418945
 21
11.38191004768424
 31
0.0
  0
LINE
  5
B5E
330
1F
100
AcDbEntity
  8
OBJECT2
100
AcDbLine
 10
19.05001686246462
 20
11.78300473432161
 30
0.0
 11
19.05001598565243
 21
12.057036176374
 31
0.0
  0
LINE
  5
B5F
330
1F
100
AcDbEntity
  8
OBJECT1
100
AcDbLine
 10
18.74002208251986
 20
11.87278177297421
 30
0.0
 11
18.74002186331677
 21
12.07699506823444
 31
0.0
  0
LINE
  5
B60
330
1F
100
AcDbEntity
  8
OBJECT2
100
AcDbLine
 10
18.7586209240271
 20
11.97277826236674
 30
0.0
 11
18.75862004721492
 21
11.80961446616405
 31
0.0
  0
LINE
  5
B61
330
1F
100
AcDbEntity
  8
OBJECT2
100
AcDbLine
 10
18.76915976864845
 20
11.94119986983504
 30
0.0
 11
18.7586207048241
 21
11.90052959206777
 31
0.0
  0
LINE
  5
B62
330
1F
100
AcDbEntity
  8
OBJECT2
100
AcDbLine
 10
18.76915954944545
 20
11.84120272283331
 30
0.0
 11
18.7586209240271
 21
11.82255621470681
 31
0.0
  0
LINE
  5
B63
330
1F
100
AcDbEntity
  8
OBJECT1
100
AcDbLine
 10
18.7423120968665
 20
11.84622641851597
 30
0.0
 11
18.76866797654202
 21
11.69675119567456
 31
0.0
  0
LINE
  5
B64
330
1F
100
AcDbEntity
  8
OBJECT2
100
AcDbLine
 10
18.82062404339641
 20
11.79408984798915
 30
0.0
 11
18.76915954944545
 21
11.79410826104603
 31
0.0
  0
ARC
  5
B65
330
1F
100
AcDbEntity
  8
OBJECT1
100
AcDbCircle
 10
18.61569799934733
 20
11.66985717249174
 30
0.0
 40
0.1553164786861875
100
AcDbArc
 50
359.995758000003
 51
9.971404999998878
  0
LINE
  5
B66
330
1F
100
AcDbEntity
  8
OBJECT1
100
AcDbLine
 10
18.77101432607452
 20
11.66984577393274
 30
0.0
 11
18.77101476448061
 21
11.62556149534868
 31
0.0
  0
LINE
  5
B67
330
1F
100
AcDbEntity
  8
OBJECT2
100
AcDbLine
 10
18.76915954944545
 20
11.79410826104603
 30
0.0
 11
18.75862004721492
 21
11.80961446616405
 31
0.0
  0
ARC
  5
B68
330
1F
100
AcDbEntity
  8
OBJECT1
100
AcDbCircle
 10
18.75163392610986
 20
11.62554856236827
 30
0.0
 40
0.0193808860925625
100
AcDbArc
 50
270.015762000003
 51
0.038619999997839
  0
LINE
  5
B69
330
1F
100
AcDbEntity
  8
OBJECT2
100
AcDbLine
 10
18.77101432607452
 20
11.62069747453738
 30
0.0
 11
18.771011637631
 21
11.57439247835799
 31
0.0
  0
LINE
  5
B6A
330
1F
100
AcDbEntity
  8
OBJECT2
100
AcDbLine
 10
18.82062404339641
 20
11.84118430977646
 30
0.0
 11
18.76915954944545
 21
11.84120272283331
 31
0.0
  0
LINE
  5
B6B
330
1F
100
AcDbEntity
  8
OBJECT2
100
AcDbLine
 10
18.76915954944545
 20
11.84120272283331
 30
0.0
 11
18.7586209240271
 21
11.88185414913759
 31
0.0
  0
ARC
  5
B6C
330
1F
100
AcDbEntity
  8
OBJECT1
100
AcDbCircle
 10
18.89481012987736
 20
11.87272346496075
 30
0.0
 40
0.15478792879275
100
AcDbArc
 50
179.9784240000009
 51
189.9882199999978
  0
LINE
  5
B6D
330
1F
100
AcDbEntity
  8
OBJECT2
100
AcDbLine
 10
18.76913847256364
 20
11.52729811981194
 30
0.0
 11
18.75859940873929
 21
11.54592533806939
 31
0.0
  0
LINE
  5
B6E
330
1F
100
AcDbEntity
  8
OBJECT2
100
AcDbLine
 10
18.76913847256364
 20
11.52729811981194
 30
0.0
 11
18.75859940873929
 21
11.48662784204472
 31
0.0
  0
LINE
  5
B6F
330
1F
100
AcDbEntity
  8
OBJECT2
100
AcDbLine
 10
18.82060252810859
 20
11.52730776474652
 30
0.0
 11
18.76913847256364
 21
11.52729811981194
 31
0.0
  0
LINE
  5
B70
330
1F
100
AcDbEntity
  8
OBJECT2
100
AcDbLine
 10
18.76913803415764
 20
11.57439214319314
 30
0.0
 11
18.75859962794229
 21
11.55887651234364
 31
0.0
  0
LINE
  5
B71
330
1F
100
AcDbEntity
  8
OBJECT2
100
AcDbLine
 10
18.82060448084434
 20
11.57440134991402
 30
0.0
 11
18.76913803415764
 21
11.57439214319314
 31
0.0
  0
LINE
  5
B72
330
1F
100
AcDbEntity
  8
OBJECT2
100
AcDbLine
 10
18.82062577692915
 20
11.98830309993712
 30
0.0
 11
18.76915933024227
 21
11.98829389321621
 31
0.0
  0
LINE
  5
B73
330
1F
100
AcDbEntity
  8
OBJECT2
100
AcDbLine
 10
18.76915933024227
 20
11.98829389321621
 30
0.0
 11
18.7586209240271
 21
11.97277826236674
 31
0.0
  0
LINE
  5
B74
330
1F
100
AcDbEntity
  8
OBJECT2
100
AcDbLine
 10
18.82062382419332
 20
11.94120951476957
 30
0.0
 11
18.76915976864845
 21
11.94119986983504
 31
0.0
  0
LINE
  5
B75
330
1F
100
AcDbEntity
  8
OBJECT2
100
AcDbLine
 10
18.76915976864845
 20
11.94119986983504
 30
0.0
 11
18.7586207048241
 21
11.95982708809249
 31
0.0
  0
LINE
  5
B76
330
1F
100
AcDbEntity
  8
OBJECT2
100
AcDbLine
 10
19.00661224575228
 20
11.56777911583491
 30
0.0
 11
19.05001664326161
 21
11.56778876076945
 31
0.0
  0
ARC
  5
B77
330
1F
100
AcDbEntity
  8
OBJECT2
100
AcDbCircle
 10
18.95596757123806
 20
12.33026380081279
 30
0.0
 40
0.193570780973625
100
AcDbArc
 50
269.9755550000029
 51
307.6321560000125
  0
ARC
  5
B78
330
1F
100
AcDbEntity
  8
OBJECT1
100
AcDbCircle
 10
18.91433849929516
 20
12.11725695567887
 30
0.0
 40
0.019426456083375
100
AcDbArc
 50
0.1522830000021525
 51
89.84215900000046
  0
LINE
  5
B79
330
1F
100
AcDbEntity
  8
OBJECT1
100
AcDbLine
 10
18.93376624712027
 20
12.1173084683975
 30
0.0
 11
18.93376690472945
 21
12.1157571683562
 31
0.0
  0
ARC
  5
B7A
330
1F
100
AcDbEntity
  8
OBJECT1
100
AcDbCircle
 10
18.91438694317097
 20
12.11576177162041
 30
0.0
 40
0.01937995609275
100
AcDbArc
 50
270.0142210000087
 51
359.9864040000009
  0
LINE
  5
B7B
330
1F
100
AcDbEntity
  8
OBJECT1
100
AcDbLine
 10
18.91362169790656
 20
12.09638905878866
 30
0.0
 11
18.91362169790656
 21
12.09638905878866
 31
0.0
  0
LINE
  5
B7C
330
1F
100
AcDbEntity
  8
OBJECT2
100
AcDbLine
 10
18.9143917656383
 20
12.13668338828565
 30
0.0
 11
18.95588493168517
 21
12.13669281401717
 31
0.0
  0
ARC
  5
B7D
330
1F
100
AcDbEntity
  8
OBJECT2
100
AcDbCircle
 10
18.71210373083613
 20
12.47457613402973
 30
0.0
 40
0.018604956249
100
AcDbArc
 50
359.989058999997
 51
89.98519499998669
  0
LINE
  5
B7E
330
1F
100
AcDbEntity
  8
OBJECT2
100
AcDbLine
 10
18.73070705596035
 20
12.4745726267808
 30
0.0
 11
18.73070793277262
 21
12.26379398073119
 31
0.0
  0
LINE
  5
B7F
330
1F
100
AcDbEntity
  8
OBJECT2
100
AcDbLine
 10
18.73070727516335
 20
12.36917387802449
 30
0.0
 11
18.73070727516335
 21
12.36917387802449
 31
0.0
  0
ARC
  5
B80
330
1F
100
AcDbEntity
  8
OBJECT1
100
AcDbCircle
 10
18.75936828680736
 20
12.07703233275429
 30
0.0
 40
0.0193467860994375
100
AcDbArc
 50
89.91394399999961
 51
180.1101989999994
  0
ARC
  5
B81
330
1F
100
AcDbEntity
  8
OBJECT2
100
AcDbCircle
 10
18.71208509857632
 20
12.26379814558932
 30
0.0
 40
0.0186223162455
100
AcDbArc
 50
270.0707549999874
 51
359.9871370000004
  0
LINE
  5
B82
330
1F
100
AcDbEntity
  8
OBJECT1
100
AcDbLine
 10
18.91362169790656
 20
12.09638905878866
 30
0.0
 11
18.75939744081418
 21
12.09637897544799
 31
0.0
  0
LINE
  5
B83
330
1F
100
AcDbEntity
  8
OBJECT2
100
AcDbLine
 10
19.16469557268027
 20
12.30013192926064
 30
0.0
 11
19.14081822198131
 21
12.27623441188035
 31
0.0
  0
ARC
  5
B84
330
1F
100
AcDbEntity
  8
OBJECT2
100
AcDbCircle
 10
19.35993513315318
 20
12.05705875428894
 30
0.0
 40
0.3099196475161876
100
AcDbArc
 50
134.9923480000086
 51
180.0041810000024
  0
LINE
  5
B85
330
1F
100
AcDbEntity
  8
OBJECT1
100
AcDbLine
 10
18.67044484727748
 20
12.66256095009596
 30
0.0
 11
18.67839095812894
 21
12.65461440083832
 31
0.0
  0
ARC
  5
B86
330
1F
100
AcDbEntity
  8
OBJECT1
100
AcDbCircle
 10
18.68359637314671
 20
12.67571598321413
 30
0.0
 40
0.0186015462496875
100
AcDbArc
 50
134.9936260000023
 51
225.0072939999969
  0
ARC
  5
B87
330
1F
100
AcDbEntity
  8
OBJECT1
100
AcDbCircle
 10
18.65642593490796
 20
12.63270110953878
 30
0.0
 40
0.031026653744625
100
AcDbArc
 50
270.1022949999984
 51
44.93230399999946
  0
LINE
  5
B88
330
1F
100
AcDbEntity
  8
OBJECT1
100
AcDbLine
 10
18.67046369874046
 20
12.68886137139778
 30
0.0
 11
19.12017543160581
 21
13.13857310426313
 31
0.0
  0
LINE
  5
B89
330
1F
100
AcDbEntity
  8
OBJECT1
100
AcDbLine
 10
18.51989114539088
 20
12.60171557664835
 30
0.0
 11
18.51989114539088
 21
12.13669495954679
 31
0.0
  0
LINE
  5
B8A
330
1F
100
AcDbEntity
  8
OBJECT2
100
AcDbLine
 10
18.45011448544008
 20
12.13667758130946
 30
0.0
 11
18.45011448544008
 21
12.6017051188385
 31
0.0
  0
LINE
  5
B8B
330
1F
100
AcDbEntity
  8
OBJECT2
100
AcDbLine
 10
18.48500281541553
 20
12.1813680280361
 30
0.0
 11
18.48500281541553
 21
12.5570430665046
 31
0.0
  0
LINE
  5
B8C
330
1F
100
AcDbEntity
  8
OBJECT2
100
AcDbLine
 10
18.41522615546472
 20
12.18133963364339
 30
0.0
 11
18.41525454985748
 21
12.55701467211188
 31
0.0
  0
LINE
  5
B8D
330
1F
100
AcDbEntity
  8
OBJECT1
100
AcDbLine
 10
18.38308735656148
 20
12.60171557664835
 30
0.0
 11
18.38308735656148
 21
12.13669495954679
 31
0.0
  0
LINE
  5
B8E
330
1F
100
AcDbEntity
  8
OBJECT1
100
AcDbLine
 10
18.9143917656383
 20
12.13668338828565
 30
0.0
 11
18.38308735656139
 21
12.13669897219537
 31
0.0
  0
LINE
  5
B8F
330
1F
100
AcDbEntity
  8
OBJECT1
100
AcDbLine
 10
18.38308735656148
 20
12.60175764467008
 30
0.0
 11
18.65648139328147
 21
12.60167357429179
 31
0.0
  0
LINE
  5
B90
330
1F
100
AcDbEntity
  8
OBJECT1
100
AcDbLine
 10
19.27768039126536
 20
13.34816136810637
 30
0.0
 11
19.29466775144607
 21
13.36514872828714
 31
0.0
  0
LINE
  5
B91
330
1F
100
AcDbEntity
  8
OBJECT2
100
AcDbLine
 10
19.28384120281132
 20
13.34188788618874
 30
0.0
 11
19.27087972599327
 21
13.34188744778262
 31
0.0
  0
LINE
  5
B92
330
1F
100
AcDbEntity
  8
OBJECT2
100
AcDbLine
 10
19.64186226935382
 20
12.64318624941085
 30
0.0
 11
19.12017521240281
 21
13.16490136435325
 31
0.0
  0
LINE
  5
B93
330
1F
100
AcDbEntity
  8
OBJECT2
100
AcDbLine
 10
19.27768039126536
 20
13.34816136810637
 30
0.0
 11
19.81253694873632
 21
12.81330481063539
 31
0.0
  0
LINE
  5
B94
330
1F
100
AcDbEntity
  8
OBJECT2
100
AcDbLine
 10
14.30801164732577
 20
18.93658142294083
 30
0.0
 11
13.41784965846688
 21
18.93658142294083
 31
0.0
  0
LINE
  5
B95
330
1F
100
AcDbEntity
  8
OBJECT2
100
AcDbLine
 10
13.19891229230524
 20
18.93658142294083
 30
0.0
 11
12.43301164732577
 21
18.93658142294083
 31
0.0
  0
LINE
  5
B96
330
1F
100
AcDbEntity
  8
OBJECT1
100
AcDbLine
 10
12.43301164732577
 20
18.93658142294083
 30
0.0
 11
12.43301164732586
 21
19.63331924552679
 31
0.0
  0
LINE
  5
B97
330
1F
100
AcDbEntity
  8
OBJECT2
100
AcDbLine
 10
13.63678692965442
 20
20.35698171397352
 30
0.0
 11
13.41784965846688
 21
20.35698171397352
 31
0.0
  0
LINE
  5
B98
330
1F
100
AcDbEntity
  8
OBJECT2
100
AcDbLine
 10
14.7783882591028
 20
19.63331924552679
 30
0.0
 11
13.63678692965442
 21
19.63331924552679
 31
0.0
  0
LINE
  5
B99
330
1F
100
AcDbEntity
  8
OBJECT2
100
AcDbLine
 10
13.41784965846688
 20
20.35698171397352
 30
0.0
 11
13.41784965846688
 21
18.88776694693916
 31
0.0
  0
LINE
  5
B9A
330
1F
100
AcDbEntity
  8
OBJECT2
100
AcDbLine
 10
13.63678692965442
 20
19.63331924552679
 30
0.0
 11
13.63678692965442
 21
20.35698171397352
 31
0.0
  0
LINE
  5
B9B
330
1F
100
AcDbEntity
  8
OBJECT2
100
AcDbLine
 10
13.19891229230524
 20
18.88776694693916
 30
0.0
 11
13.19891229230524
 21
19.63331924552679
 31
0.0
  0
LINE
  5
B9C
330
1F
100
AcDbEntity
  8
OBJECT2
100
AcDbLine
 10
12.11204525691014
 20
19.63331924552679
 30
0.0
 11
13.19891229230524
 21
19.63331924552679
 31
0.0
  0
LINE
  5
B9D
330
1F
100
AcDbEntity
  8
OBJECT2
100
AcDbLine
 10
13.41784965846688
 20
18.88776694693916
 30
0.0
 11
13.19891229230524
 21
18.88776694693916
 31
0.0
  0
ARC
  5
B9E
330
1F
100
AcDbEntity
  8
OBJECT2
100
AcDbCircle
 10
8.854488001295298
 20
17.50417189481646
 30
0.0
 40
1.081974390738882
100
AcDbArc
 50
32.10362366777194
 51
46.60127961221756
  0
ARC
  5
B9F
330
1F
100
AcDbEntity
  8
OBJECT2
100
AcDbCircle
 10
9.613327432460867
 20
18.04101474652017
 30
0.0
 40
0.2497869538417957
100
AcDbArc
 50
8.79092538162736
 51
93.54521999895878
  0
ARC
  5
BA0
330
1F
100
AcDbEntity
  8
OBJECT2
100
AcDbCircle
 10
9.314444390059382
 20
17.18711187870551
 30
0.0
 40
0.9588356456590789
100
AcDbArc
 50
68.49349677820568
 51
82.02774531870522
  0
ARC
  5
BA1
330
1F
100
AcDbEntity
  8
OBJECT2
100
AcDbCircle
 10
9.561456927514033
 20
17.83908948837738
 30
0.0
 40
0.3186894567708276
100
AcDbArc
 50
48.88559448429083
 51
110.96536539927
  0
LINE
  5
BA2
330
1F
100
AcDbEntity
  8
OBJECT1
100
AcDbLine
 10
12.43301164732577
 20
17.34403783719873
 30
0.0
 11
12.43301164732577
 21
18.73751348237067
 31
0.0
  0
LINE
  5
BA3
330
1F
100
AcDbEntity
  8
OBJECT2
100
AcDbLine
 10
14.30801164732577
 20
17.14496989662857
 30
0.0
 11
12.43301164732577
 21
17.14496989662857
 31
0.0
  0
LINE
  5
BA4
330
1F
100
AcDbEntity
  8
OBJECT2
100
AcDbLine
 10
14.30801164732577
 20
17.34403783719873
 30
0.0
 11
12.43301164732577
 21
17.34403783719873
 31
0.0
  0
LINE
  5
BA5
330
1F
100
AcDbEntity
  8
OBJECT2
100
AcDbLine
 10
12.59033347764063
 20
17.34403783719873
 30
0.0
 11
12.59033347764063
 21
17.14496989662857
 31
0.0
  0
LINE
  5
BA6
330
1F
100
AcDbEntity
  8
OBJECT2
100
AcDbLine
 10
14.30801164732577
 20
18.73751348237067
 30
0.0
 11
12.43301164732577
 21
18.73751348237067
 31
0.0
  0
ARC
  5
BA7
330
1F
100
AcDbEntity
  8
OBJECT2
100
AcDbCircle
 10
12.3636965156762
 20
17.50417189481646
 30
0.0
 40
1.081974390738882
100
AcDbArc
 50
133.3987203877824
 51
147.896376332228
  0
ARC
  5
BA8
330
1F
100
AcDbEntity
  8
OBJECT2
100
AcDbCircle
 10
12.15113661889637
 20
18.06181130067821
 30
0.0
 40
0.7933225038435104
100
AcDbArc
 50
147.1841746253616
 51
178.7448004574573
  0
ARC
  5
BA9
330
1F
100
AcDbEntity
  8
OBJECT2
100
AcDbCircle
 10
11.60485708451063
 20
18.04101474652017
 30
0.0
 40
0.2497869538417957
100
AcDbArc
 50
86.45478000104125
 51
171.2090746183726
  0
ARC
  5
BAA
330
1F
100
AcDbEntity
  8
OBJECT2
100
AcDbCircle
 10
11.66631330067344
 20
18.08953811352176
 30
0.0
 40
0.4414263449606274
100
AcDbArc
 50
114.334907829167
 51
169.5993313657416
  0
ARC
  5
BAB
330
1F
100
AcDbEntity
  8
OBJECT2
100
AcDbCircle
 10
11.65672758945746
 20
17.83908948837738
 30
0.0
 40
0.3186894567708276
100
AcDbArc
 50
69.0346346007299
 51
131.1144055157091
  0
ARC
  5
BAC
330
1F
100
AcDbEntity
  8
OBJECT2
100
AcDbCircle
 10
10.68593453218921
 20
18.14939424845704
 30
0.0
 40
0.426407313699052
100
AcDbArc
 50
355.2258859347401
 51
50.1138242026866
  0
ARC
  5
BAD
330
1F
100
AcDbEntity
  8
OBJECT2
100
AcDbCircle
 10
10.00330835391918
 20
18.23647786913076
 30
0.0
 40
0.9857554310598606
100
AcDbArc
 50
353.1041144800019
 51
14.09774513797397
  0
ARC
  5
BAE
330
1F
100
AcDbEntity
  8
OBJECT2
100
AcDbCircle
 10
10.71575514159852
 20
18.11384463845663
 30
0.0
 40
0.2662120307829582
100
AcDbArc
 50
0.9207694437857092
 51
86.60447613713001
  0
ARC
  5
BAF
330
1F
100
AcDbEntity
  8
OBJECT2
100
AcDbCircle
 10
10.6411218160988
 20
18.1540194177822
 30
0.0
 40
0.2430104048319813
100
AcDbArc
 50
353.5111851103267
 51
68.16079043166819
  0
ARC
  5
BB0
330
1F
100
AcDbEntity
  8
OBJECT2
100
AcDbCircle
 10
10.5138794379157
 20
17.89773930107318
 30
0.0
 40
0.3706837518514344
100
AcDbArc
 50
35.43254208631271
 51
83.08263043591937
  0
ARC
  5
BB1
330
1F
100
AcDbEntity
  8
OBJECT2
100
AcDbCircle
 10
10.64895743420712
 20
18.02943874924663
 30
0.0
 40
0.2530006821656932
100
AcDbArc
 50
22.57333003010117
 51
110.9433271923233
  0
ARC
  5
BB2
330
1F
100
AcDbEntity
  8
OBJECT2
100
AcDbCircle
 10
11.21487616305239
 20
18.23647786913076
 30
0.0
 40
0.9857554310598606
100
AcDbArc
 50
165.902254862026
 51
186.895885519998
  0
ARC
  5
BB3
330
1F
100
AcDbEntity
  8
OBJECT2
100
AcDbCircle
 10
10.5325028076129
 20
18.24822069725163
 30
0.0
 40
0.5521378426039441
100
AcDbArc
 50
145.7903072266783
 51
188.2252446902163
  0
ARC
  5
BB4
330
1F
100
AcDbEntity
  8
OBJECT2
100
AcDbCircle
 10
11.51349396274992
 20
18.4367583829172
 30
0.0
 40
1.442758977967337
100
AcDbArc
 50
175.1537653321352
 51
192.9308384061624
  0
ARC
  5
BB5
330
1F
100
AcDbEntity
  8
OBJECT2
100
AcDbCircle
 10
10.53224998478228
 20
18.14939424845704
 30
0.0
 40
0.426407313699052
100
AcDbArc
 50
129.8861757973134
 51
184.7741140652598
  0
ARC
  5
BB6
330
1F
100
AcDbEntity
  8
OBJECT2
100
AcDbCircle
 10
10.50242937537297
 20
18.11384463845663
 30
0.0
 40
0.2662120307829582
100
AcDbArc
 50
93.39552386287001
 51
179.0792305562143
  0
ARC
  5
BB7
330
1F
100
AcDbEntity
  8
OBJECT2
100
AcDbCircle
 10
10.57706270087269
 20
18.1540194177822
 30
0.0
 40
0.2430104048319813
100
AcDbArc
 50
111.8392095683318
 51
186.4888148896733
  0
ARC
  5
BB8
330
1F
100
AcDbEntity
  8
OBJECT2
100
AcDbCircle
 10
10.5355681519251
 20
17.98234395978365
 30
0.0
 40
0.246538125377997
100
AcDbArc
 50
59.77875501956739
 51
144.2003822669088
  0
ARC
  5
BB9
330
1F
100
AcDbEntity
  8
OBJECT2
100
AcDbCircle
 10
9.06704789807512
 20
18.06181130067821
 30
0.0
 40
0.7933225038435104
100
AcDbArc
 50
1.255199542542658
 51
32.81582537463832
  0
ARC
  5
BBA
330
1F
100
AcDbEntity
  8
OBJECT2
100
AcDbCircle
 10
9.551871216298057
 20
18.08953811352176
 30
0.0
 40
0.4414263449606274
100
AcDbArc
 50
10.40066863425832
 51
65.66509217083297
  0
ARC
  5
BBB
330
1F
100
AcDbEntity
  8
OBJECT2
100
AcDbCircle
 10
10.67881793385564
 20
17.97620296972131
 30
0.0
 40
0.1934169974560196
100
AcDbArc
 50
44.86257011073646
 51
127.3232719025808
  0
ARC
  5
BBC
330
1F
100
AcDbEntity
  8
OBJECT2
100
AcDbCircle
 10
10.56553033548931
 20
17.64309748544189
 30
0.0
 40
0.486932250202168
100
AcDbArc
 50
63.58441388956619
 51
90.46871244708595
  0
ARC
  5
BBD
330
1F
100
AcDbEntity
  8
OBJECT2
100
AcDbCircle
 10
10.67978717487154
 20
17.80759556607142
 30
0.0
 40
0.3883010325371071
100
AcDbArc
 50
92.97108765874167
 51
135.6177681117672
  0
ARC
  5
BBE
330
1F
100
AcDbEntity
  8
OBJECT2
100
AcDbCircle
 10
9.704690554221574
 20
18.4367583829172
 30
0.0
 40
1.442758977967337
100
AcDbArc
 50
347.0691615938375
 51
4.846234667864718
  0
ARC
  5
BBF
330
1F
100
AcDbEntity
  8
OBJECT2
100
AcDbCircle
 10
10.68568170935867
 20
18.24822069725163
 30
0.0
 40
0.5521378426039441
100
AcDbArc
 50
351.7747553097837
 51
34.20969277332162
  0
ARC
  5
BC0
330
1F
100
AcDbEntity
  8
OBJECT2
100
AcDbCircle
 10
11.53161359923709
 20
18.13593733277877
 30
0.0
 40
0.7482006353479405
100
AcDbArc
 50
1.872836715458776
 51
33.08091279288777
  0
ARC
  5
BC1
330
1F
100
AcDbEntity
  8
OBJECT2
100
AcDbCircle
 10
11.78124467392092
 20
17.97051281339592
 30
0.0
 40
0.4060878290133151
100
AcDbArc
 50
18.39168483556913
 51
81.84305771154495
  0
ARC
  5
BC2
330
1F
100
AcDbEntity
  8
OBJECT2
100
AcDbCircle
 10
11.86995999320166
 20
17.87350407281394
 30
0.0
 40
0.4999563118829546
100
AcDbArc
 50
35.01711252289231
 51
93.56612626302544
  0
ARC
  5
BC3
330
1F
100
AcDbEntity
  8
OBJECT2
100
AcDbCircle
 10
11.84911475513641
 20
17.7913005224925
 30
0.0
 40
0.441867745360449
100
AcDbArc
 50
44.07042786521201
 51
106.8996241576342
  0
ARC
  5
BC4
330
1F
100
AcDbEntity
  8
OBJECT2
100
AcDbCircle
 10
11.96931164704358
 20
18.11910817137964
 30
0.0
 40
0.4654150720669827
100
AcDbArc
 50
355.0796951004386
 51
66.01100297813245
  0
ARC
  5
BC5
330
1F
100
AcDbEntity
  8
OBJECT2
100
AcDbCircle
 10
11.61034128145692
 20
17.52641028083058
 30
0.0
 40
0.6964696241903937
100
AcDbArc
 50
52.53146195270469
 51
80.88566672242077
  0
ARC
  5
BC6
330
1F
100
AcDbEntity
  8
OBJECT2
100
AcDbCircle
 10
11.90374012691211
 20
17.18711187870551
 30
0.0
 40
0.9588356456590789
100
AcDbArc
 50
97.97225468129475
 51
111.5065032217943
  0
LINE
  5
BC7
330
1F
100
AcDbEntity
  8
OBJECT2
100
AcDbLine
 10
12.59033347764063
 20
18.93658142294083
 30
0.0
 11
12.59033347764063
 21
18.73751348237067
 31
0.0
  0
LINE
  5
1119
330
1F
100
AcDbEntity
  8
OBJECT2
100
AcDbLine
 10
21.97902221940783
 20
9.411214674172684
 30
0.0
 11
21.97902221940783
 21
8.735558697696353
 31
0.0
  0
LINE
  5
111B
330
1F
100
AcDbEntity
  8
OBJECT2
100
AcDbLine
 10
21.97902221940783
 20
8.735558697696344
 30
0.0
 11
22.08227151684624
 21
9.190769293435771
 31
0.0
  0
LINE
  5
111C
330
1F
100
AcDbEntity
  8
OBJECT2
100
AcDbLine
 10
21.87577292196942
 20
9.190769293435771
 30
0.0
 11
21.97902221940783
 21
8.735558697696347
 31
0.0
  0
LINE
  5
111D
330
1F
100
AcDbEntity
  8
OBJECT2
100
AcDbLine
 10
22.08227151684624
 20
9.190769293435771
 30
0.0
 11
21.87577292196942
 21
9.190769293435771
 31
0.0
  0
LINE
  5
111E
330
1F
100
AcDbEntity
  8
OBJECT2
100
AcDbLine
 10
22.44450406722033
 20
11.06755915552289
 30
0.0
 11
19.6711714864541
 21
11.06762315927696
 31
0.0
  0
LINE
  5
111F
330
1F
100
AcDbEntity
  8
OBJECT2
100
AcDbLine
 10
21.97922846890234
 20
11.06810673042911
 30
0.0
 11
22.08247776634074
 21
10.61289613468967
 31
0.0
  0
LINE
  5
1120
330
1F
100
AcDbEntity
  8
OBJECT2
100
AcDbLine
 10
21.97902221940783
 20
11.06901605337461
 30
0.0
 11
21.97902221940783
 21
10.37458428426511
 31
0.0
  0
LINE
  5
1121
330
1F
100
AcDbEntity
  8
OBJECT2
100
AcDbLine
 10
21.87597917146393
 20
10.61289613468967
 30
0.0
 11
21.97922846890234
 21
11.06810673042909
 31
0.0
  0
TEXT
  5
1122
330
1F
100
AcDbEntity
  8
TEXT
100
AcDbText
 10
20.79220686745072
 20
10.02570874754479
 30
0.0
 40
0.349111385859375
  1
12" MIN.
  7
ROMANS
 72
     1
 11
21.96422366283576
 21
10.20026444047447
 31
0.0
100
AcDbText
 73
     2
  0
TEXT
  5
1123
330
1F
100
AcDbEntity
  8
TEXT
100
AcDbText
 10
20.78597339457938
 20
9.515256748451403
 30
0.0
 40
0.349111385859375
  1
30" MAX.
  7
ROMANS
 72
     1
 11
21.9995510692334
 21
9.689812441381089
 31
0.0
100
AcDbText
 73
     2
  0
LINE
  5
1124
330
1F
100
AcDbEntity
  8
OBJECT2
100
AcDbLine
 10
22.08247776634074
 20
10.61289613468967
 30
0.0
 11
21.87597917146393
 21
10.61289613468967
 31
0.0
  0
TEXT
  5
1127
330
1F
100
AcDbEntity
  8
TEXT
100
AcDbText
 10
17.29248352971109
 20
10.18247560268202
 30
0.0
 40
0.28125
  1
AIR GAP
  7
ROMANS
100
AcDbText
  0
TEXT
  5
1128
330
1F
100
AcDbEntity
  8
TEXT
100
AcDbText
 10
19.97507934853139
 20
7.146587592644785
 30
0.0
 40
0.28125
  1
DRAIN
  7
ROMANS
100
AcDbText
  0
TEXT
  5
17B7
330
1F
100
AcDbEntity
  8
TEXT
100
AcDbText
 10
13.96817019317661
 20
1.765813468469774
 30
0.0
 40
0.28125
  1
INDOOR HORIZONTAL INSTALLATION
  7
ROMANS
 72
     1
 11
17.65120590746232
 21
1.906438468469774
 31
0.0
100
AcDbText
 73
     2
  0
TEXT
  5
17B8
330
1F
100
AcDbEntity
  8
TEXT
100
AcDbText
 10
11.98602733603375
 20
2.940848529355193
 30
0.0
 40
0.5625
  1
WILKINS MODEL 975XLOSY
  7
ROMANS
 72
     1
 11
17.65120590746232
 21
3.222098529355193
 31
0.0
100
AcDbText
 73
     2
  0
TEXT
  5
1E2A
330
1F
100
AcDbEntity
  8
TEXT
100
AcDbText
 10
16.28513447889089
 20
2.324550670038412
 30
0.0
 40
0.28125
  1
SMALL SIZES
  7
ROMANS
 72
     1
 11
17.65120590746232
 21
2.465175670038412
 31
0.0
100
AcDbText
 73
     2
  0
ENDSEC
  0
SECTION
  2
OBJECTS
  0
DICTIONARY
  5
C
330
0
100
AcDbDictionary
  3
ACAD_GROUP
350
D
  3
ACAD_LAYOUT
350
1A
  3
ACAD_MLINESTYLE
350
17
  3
ACAD_PLOTSETTINGS
350
19
  3
ACAD_PLOTSTYLENAME
350
E
  3
ACDBHEADERROUNDTRIPXREC
350
218C
  3
ACDBVARIABLEDICTIONARY
350
178
  0
DICTIONARY
  5
21AE
330
1F
100
AcDbDictionary
280
     1
  3
ACAD_LAYOUTSELFREF
360
21AF
  0
DICTIONARY
  5
21AC
330
1B
100
AcDbDictionary
280
     1
  3
ACAD_LAYOUTSELFREF
360
21AD
  0
DICTIONARY
  5
D
102
{ACAD_REACTORS
330
C
102
}
330
C
100
AcDbDictionary
  0
DICTIONARY
  5
1A
102
{ACAD_REACTORS
330
C
102
}
330
C
100
AcDbDictionary
  0
DICTIONARY
  5
17
102
{ACAD_REACTORS
330
C
102
}
330
C
100
AcDbDictionary
  3
STANDARD
350
18
  0
DICTIONARY
  5
19
102
{ACAD_REACTORS
330
C
102
}
330
C
100
AcDbDictionary
  0
ACDBDICTIONARYWDFLT
  5
E
102
{ACAD_REACTORS
330
C
102
}
330
C
100
AcDbDictionary
281
     1
  3
Normal
350
F
100
AcDbDictionaryWithDefault
340
F
  0
DICTIONARY
  5
218C
102
{ACAD_REACTORS
330
C
102
}
330
C
100
AcDbDictionary
  3
CEPSNTYPE
350
2196
  3
FINGERPRINTGUID
350
2197
  3
HYPERLINKBASE
350
218F
  3
INSUNITS
350
2195
  3
LAYOUTDICT
350
2191
  3
LWETCUNION
350
2194
  3
PLOTSETDICT
350
2192
  3
PLOTSTYLNAMDICT
350
2193
  3
PSVPSCALE
350
2199
  3
PUCSBASE
350
219C
  3
PUCSORGBACK
350
21A2
  3
PUCSORGBOTTOM
350
219E
  3
PUCSORGFRONT
350
21A1
  3
PUCSORGLEFT
350
219F
  3
PUCSORGRIGHT
350
21A0
  3
PUCSORGTOP
350
219D
  3
PUCSORTHOREF
350
219A
  3
PUCSORTHOVIEW
350
219B
  3
STYLESHEET
350
2190
  3
TSTACKALIGN
350
218D
  3
TSTACKSIZE
350
218E
  3
UCSBASE
350
21A5
  3
UCSORGBACK
350
21AB
  3
UCSORGBOTTOM
350
21A7
  3
UCSORGFRONT
350
21AA
  3
UCSORGLEFT
350
21A8
  3
UCSORGRIGHT
350
21A9
  3
UCSORGTOP
350
21A6
  3
UCSORTHOREF
350
21A3
  3
UCSORTHOVIEW
350
21A4
  3
VERSIONGUID
350
2198
  0
DICTIONARY
  5
178
102
{ACAD_REACTORS
330
C
102
}
330
C
100
AcDbDictionary
  3
DIMASSOC
350
BC9
  3
SORTENTS
350
179
  0
XRECORD
  5
21AF
102
{ACAD_REACTORS
330
21AE
102
}
330
21AE
100
AcDbXrecord
340
1F
  0
XRECORD
  5
21AD
102
{ACAD_REACTORS
330
21AC
102
}
330
21AC
100
AcDbXrecord
340
1B
  0
MLINESTYLE
  5
18
102
{ACAD_REACTORS
330
17
102
}
330
17
100
AcDbMlineStyle
  2
STANDARD
 70
     0
  3

 62
   256
 51
90.0
 52
90.0
 71
     2
 49
0.5
 62
   256
  6
BYLAYER
 49
-0.5
 62
   256
  6
BYLAYER
  0
ACDBPLACEHOLDER
  5
F
102
{ACAD_REACTORS
330
E
102
}
330
E
100
AcDbPlaceHolder
280
     0
  0
XRECORD
  5
2196
102
{ACAD_REACTORS
330
218C
102
}
330
218C
100
AcDbXrecord
 90
        0
  0
XRECORD
  5
2197
102
{ACAD_REACTORS
330
218C
102
}
330
218C
100
AcDbXrecord
  1
{FDEAD576-A652-11D2-9A35-0060089B3A3F}
  0
XRECORD
  5
218F
102
{ACAD_REACTORS
330
218C
102
}
330
218C
100
AcDbXrecord
  1

  0
XRECORD
  5
2195
102
{ACAD_REACTORS
330
218C
102
}
330
218C
100
AcDbXrecord
 90
        1
  0
XRECORD
  5
2191
102
{ACAD_REACTORS
330
218C
102
}
330
218C
100
AcDbXrecord
340
1A
  0
XRECORD
  5
2194
102
{ACAD_REACTORS
330
218C
102
}
330
218C
100
AcDbXrecord
 90
    11805
  0
XRECORD
  5
2192
102
{ACAD_REACTORS
330
218C
102
}
330
218C
100
AcDbXrecord
340
19
  0
XRECORD
  5
2193
102
{ACAD_REACTORS
330
218C
102
}
330
218C
100
AcDbXrecord
340
E
  0
XRECORD
  5
2199
102
{ACAD_REACTORS
330
218C
102
}
330
218C
100
AcDbXrecord
 40
0.0
  0
XRECORD
  5
219C
102
{ACAD_REACTORS
330
218C
102
}
330
218C
100
AcDbXrecord
340
0
  0
XRECORD
  5
21A2
102
{ACAD_REACTORS
330
218C
102
}
330
218C
100
AcDbXrecord
 10
0.0
 20
0.0
 30
0.0
  0
XRECORD
  5
219E
102
{ACAD_REACTORS
330
218C
102
}
330
218C
100
AcDbXrecord
 10
0.0
 20
0.0
 30
0.0
  0
XRECORD
  5
21A1
102
{ACAD_REACTORS
330
218C
102
}
330
218C
100
AcDbXrecord
 10
0.0
 20
0.0
 30
0.0
  0
XRECORD
  5
219F
102
{ACAD_REACTORS
330
218C
102
}
330
218C
100
AcDbXrecord
 10
0.0
 20
0.0
 30
0.0
  0
XRECORD
  5
21A0
102
{ACAD_REACTORS
330
218C
102
}
330
218C
100
AcDbXrecord
 10
0.0
 20
0.0
 30
0.0
  0
XRECORD
  5
219D
102
{ACAD_REACTORS
330
218C
102
}
330
218C
100
AcDbXrecord
 10
0.0
 20
0.0
 30
0.0
  0
XRECORD
  5
219A
102
{ACAD_REACTORS
330
218C
102
}
330
218C
100
AcDbXrecord
340
0
  0
XRECORD
  5
219B
102
{ACAD_REACTORS
330
218C
102
}
330
218C
100
AcDbXrecord
 70
     0
  0
XRECORD
  5
2190
102
{ACAD_REACTORS
330
218C
102
}
330
218C
100
AcDbXrecord
  1
WILKINS.ctb
  0
XRECORD
  5
218D
102
{ACAD_REACTORS
330
218C
102
}
330
218C
100
AcDbXrecord
 90
        1
  0
XRECORD
  5
218E
102
{ACAD_REACTORS
330
218C
102
}
330
218C
100
AcDbXrecord
 90
       70
  0
XRECORD
  5
21A5
102
{ACAD_REACTORS
330
218C
102
}
330
218C
100
AcDbXrecord
340
0
  0
XRECORD
  5
21AB
102
{ACAD_REACTORS
330
218C
102
}
330
218C
100
AcDbXrecord
 10
0.0
 20
0.0
 30
0.0
  0
XRECORD
  5
21A7
102
{ACAD_REACTORS
330
218C
102
}
330
218C
100
AcDbXrecord
 10
0.0
 20
0.0
 30
0.0
  0
XRECORD
  5
21AA
102
{ACAD_REACTORS
330
218C
102
}
330
218C
100
AcDbXrecord
 10
0.0
 20
0.0
 30
0.0
  0
XRECORD
  5
21A8
102
{ACAD_REACTORS
330
218C
102
}
330
218C
100
AcDbXrecord
 10
0.0
 20
0.0
 30
0.0
  0
XRECORD
  5
21A9
102
{ACAD_REACTORS
330
218C
102
}
330
218C
100
AcDbXrecord
 10
0.0
 20
0.0
 30
0.0
  0
XRECORD
  5
21A6
102
{ACAD_REACTORS
330
218C
102
}
330
218C
100
AcDbXrecord
 10
0.0
 20
0.0
 30
0.0
  0
XRECORD
  5
21A3
102
{ACAD_REACTORS
330
218C
102
}
330
218C
100
AcDbXrecord
340
0
  0
XRECORD
  5
21A4
102
{ACAD_REACTORS
330
218C
102
}
330
218C
100
AcDbXrecord
 70
     0
  0
XRECORD
  5
2198
102
{ACAD_REACTORS
330
218C
102
}
330
218C
100
AcDbXrecord
  1
{28B2149F-793E-4549-AD4E-8DE7E9AE6CAE}
  0
DICTIONARYVAR
  5
BC9
102
{ACAD_REACTORS
330
178
102
}
330
178
100
DictionaryVariables
280
     0
  1
1
  0
DICTIONARYVAR
  5
179
102
{ACAD_REACTORS
330
178
102
}
330
178
100
DictionaryVariables
280
     0
  1
96
  0
ENDSEC
  0
EOF
